Oops, an error
Loading. Please wait.

Starcraft 2 - Jems Song Tab

1,520 views 3 this week
1 commentread comment
1 2 3 4 5
accurate
x 1
add to favorites
launch autoscroll
font size
0
reset
how to read this tab
guitar tuner
Tab Pro tools
  • play this tab
  • loop segment
  • change instrument
  • show fretboard
  • metronome
Autoscroll
slow
fast
+/-
esc
set tempo
stop
Contributor
Difficulty
intermediate
-------------------------------------------------------------------------------
                             JEM'S SONG - StarCraft 2 Jukebox (Big Tuna)
-------------------------------------------------------------------------------
Tabbed by: Sgt. Septimus
Email: pflasti@gmx.de

Tuning: Standard

This is my favorite song from the StarCraft2 jukebox. I haven't seen it online,
 so i give you this version, from which i think its quiet close. If you ever listened to 
the song carefully,
 you should have noticed that there are lots of parts, which sound a bit sloppy or at 
least difficult to understand,
 but i think i managed to make most of them sound adequate.

If you like this tab or have any suggestions, please email me :)


e|---------------------------------------------------------------------------|
B|---------------------------------------------------------------------------|
G|----------------------------------------2--2--2--2-2-----------------------|
D|------------------2--2--2--2-2--------------------------------2--2--2--2-2-|
A|---2--5--5~--------------------------0-------------------------------------|
E|--------------0-----------------3b4-------------------3b4--0---------------|
                                                                          E
e|------------------------------------------------------------------------0--|
B|------------------------------------------------------------------------0--|
G|-------4--4--4--4-4--------------------------------2--2--2--2-2---------1--|
D|-----------------------------2--2--2--2-2-------------------------------2--|
A|-0--2-------------------------------------------0-----------------------2--|
E|---------------------3b4--0----------------3b4-------------------3b4--0-0--|
            B
e|----------2---2-2----------------------------------------------------------|
B|----------4---4-4----------------------------------------------------------|
G|----------4---4-4----------------------------------------------------------|
D|----------4---4-4-----2--2--2-------2-----5p4p2-4p2---5p4p2-4p2---5b4b2-4b2|
A|-0--1--2--2---2-2---------------2h4---4-------------4-----------4----------|
E|----------x---x-x--0-------------------------------------------------------|

e|---------------------------------------------------------------------------|
B|---------------------------------------------------------------------------|
G|---------------------------------------------------------------------------|
D|---5b4b2-4b2---5b4b2-4b2---5b4b2-4b2----4--4--4-6---4---4h5p4p2----2-----2-|
A|-4-----------4-----------4-----------4--------------------------4----3/4---|
E|---------------------------------------------------------------------------|
                                               E           B
e|---------------------------------------------0-----------2---2-2-----------|
B|---------------------------------------------0-----------4---4-4-----------|
G|-------------------------------2-2-----------1-----------4---4-4------0h1--|
D|-----2-----2-2-----2------2-4-------4-2------2-----------4---4-4-----------|
A|-3/4---3/4-----3/4----2-4---------------4----2--0--1--2--2---2-2-----------|
E|-------------------------------------------0-0-----------x---x-x---0-------|

e|-----0------0----0--0--0--0--0--0--0-0--0--0-3--0-3--0-3--0-3--0-3--3/4-4--|
B|-0-2----0h2---0---------------------------------------------------------5--|
G|------------------------------------------------------------------------4--|
D|---------------------------------------------------------------------------|
A|---------------------------------------------------------------------------|
E|---------------------------------------------------------------------------|

e|-4-3/4-4--4-----7-5-4-2---------0--3-2-0---2-0-----0--0-0-------0----------|
B|-------5----2/4-----------0--2-----------2-----2-0-0------2p0--------------|
G|-------4------------------------------------------------------1----3-2-0---|
D|-------------------------------------------------------------------------2-|
A|---------------------------------------------------------------------------|
E|---------------------------------------------------------------------------|
                                          B
e|-------------0------------------0-------2---2-2--------------0-------------|
B|----------------------------------------4---4-4----------0-2----0-2p0------|
G|-2---0-2-2h3---2p0----2p0---0h1---------4---4-4------0h1--------------1----|
D|---2--------------2-------2-------------4---4-4----------------------------|
A|-------------------------------------2--2---2-2----------------------------|
E|---------------------------------------------------0-----------------------|
    E                A7/9             E                B  Bb A       E6
e|--0--0--0---0-0----7--7--7---7-7----7--7--7---7-7----7--6--5--5----9--9--9-|
B|--0--0--0---0-0----8--8--8---8-8----9--9--9---9-9----7--6--5--5----9--9--9-|
G|--1--1--1---1-1----6--6--6---6-6----9--9--9---9-9----8--7--6--6----9--9--9-|
D|--2--2--2---2-2----7--7--7---7-7----9--9--9---9-9----9--8--7--7----9--9--9-|
A|--2--2--2---2-2---------------------7--7--7---7-7--------------------------|
E|--0--0--0---0-0------------------------------------------------------------|
           A7/9    E0dim         E             B
e|--9-9----12--12--12---12-12----12---12-12----7-7---------------------------|
B|--9-9----12--12--11---11-11----12---12-12----7-7---------------------------|
G|--9-9----12--12--12---12-12----13---13-13----8-8---------------------------|
D|--9-9----11--11--11---11-11----14---14-14----9-9-----------------2---------|
A|-------------------------------------------------------------2-4-----4-2---|
E|-----------------------------------------------------0---3/4---------------|

e|---------------------------------------------------------------------------|
B|---------------------------------------------------------------------------|
G|---------------------------------------------------------------------------|
D|-2--2--2--5-2----2--2--2--5-2----2--2--2--5-2----4---4--4--4h5p4p2---2-----|
A|--------------4---------------4---------------4----2---------------4---4---|
E|---------------------------------------------------------------------------|
                                             E         B
e|-------------------------------------------0---------2---2-2---------------|
B|-------------------------------------------0---------4---4-4---------------|
G|------------------------------2-2----------1---------4---4-4---------------|
D|-------2------------------2-4-----4-2------2---------4---4-4-------------2-|
A|---------4-2------0---2-4-------------4----2--0-1-2--2---2-2---------2-4---|
E|-3b4-0-------3b4-------------------------0-0------------------0--3-4-------|

e|-----2----0--0--0--0-0-0--0--3-3-3-3-3-3-3-3--4-4-4-4--5-5--7-7---7-5-4-2--|
B|-0h2---0--------------------5-5-5-5-5-5-5-5--5-5-5-5--5-5--5-5-------------|
G|---------------------------------------------------------------------------|
D|---------------------------------------------------------------------------|
A|---------------------------------------------------------------------------|
E|---------------------------------------------------------------------------|

e|-----0--3/4-0--3/4-0--3/4-0-3/4-0----3-2-0---2-0-----0--0-0----------------|
B|-0h2------------------------------0--------2-----2-0-0------2p0------------|
G|----------------------------------------------------------------2--0h1-----|
D|-----------------------------------------------------------------------2---|
A|---------------------------------------------------------------------------|
E|---------------------------------------------------------------------------|
          B                                  E                     A9
e|--------2---2-2--------------0-------------12--12--12---12-12----12--12--12|
B|--------4---4-4----------0-2----0-2p0------12--12--12---12-12----12--12--12|
G|--------4---4-4------0h1--------------1----13--13--13---13-13----12--12--12|
D|--------4---4-4----------------------------14--14--14---14-14----11--11--11|
A|-0-1-2--2---2-2--------------------------------------------------12--12--12|
E|------------------0--------------------------------------------------------|
              E                     B7                      E        E7
e|---12-12----12--12--12---12-12----11--11--11---11-11------12-12----10-10---|
B|---12-12----12--12--12---12-12----12--12--12---12-12------12-12-----9--9---|
G|---12-12----13--13--13---13-13----14--14--14---14-14------13-13-----9--9---|
D|---11-11----14--14--14---14-14----13--13--13---13-13------14-14-----9--9---|
A|---12-12-------------------------------------------------------------------|
E|---------------------------------------------------------------------------|
     A       E0dim    E        H7           E6
e|--12-12----12-12----12-12----14-14--14----12--12--12---12-12---------------|
B|--10-10----11-11----12-12----14-14--14----14--14--14---14-14---------------|
G|---9--9----12-12----13-13----14-14--14----13--13--13---13-13---------------|
D|-----------11-11----14-14----13-13--13----14--14--14---14-14---------------|
A|-----------------------------14-14--14-------------------------------------|
E|---------------------------------------------------------------------------|

after this repeat the first part and use E as final chord (with vibrato).

I hope this was usefull. Tell me, if you liked it.

Sgt. Septimus

************************************

| /   slide up
| \   slide down
| h   hammer-on
| p   pull-off
| ~   vibrato
| +   harmonic
| x   Mute note
| b   Bend
| pb  Pre-bend
| br  Bend release
| pbr Pre-bend release
| brb Bend release bend

************************************
comments
We did not receive enough feedback on this tab! Please rate:
print report bad tab
1 2 3 4 5
1 comment total.
0 reply
janixus wrote on April 9 2013, 10:34 pm

WOOOOOOOO i love this song!!! En Taro Misc Unsigned Bands!!

I want to post or [tab]
guest
You may want to rate the tab now too:
select rating
Please do not post tabs as comments. Select "correction" instead!