Oops, an error
Loading. Please wait.

Starlight Valley-Twilight Tab

80 views 1 this week
no commentswrite comment
1 2 3 4 5
please rate
add to favorites
launch autoscroll
font size
0
reset
how to read this tab
guitar tuner
Tab Pro tools
  • play this tab
  • loop segment
  • change instrument
  • show fretboard
  • metronome
Autoscroll
slow
fast
+/-
esc
set tempo
stop
Contributor
Difficulty
intermediate
----------------------------------------------------------------------------
                                                Twilight – Starlight Valley
----------------------------------------------------------------------------
Tabbed by: superubercool
Email: super_ubercool69@yahoo.com
Tuning: Standard

Okay, go easy on me. This is my first tab. EVER. I wrote this in 4 hours.
And I'm 14. Not 25, not 30, and I'm certainly NOT a professional at guitar.
BUT I have been looking at tabs for a long time now, so I know how to do
them. Oh yea, this is MY band. Enjoy.

Intro
e|3-------3-------3-------3-------3-------3-------3-------0~~~~~~-----------|
B|--0---0---0---0---0---0---0---0---0---0---0---0---0---0-------------------|
G|----0-------0-------0-------0-------0-------0-------0---------------------|
D|----------------2-------0-------------------------------2~~~~~~-----------|
A|--------2-----------------------3-------2-------0-------------------------|
E|3-------------------------------------------------------------------------|

e|0-----0-----0---0-----0-----0---2-----2-----2---2-----2-----2---2-----2----|
B|--0-----0-----0---0-----0-----0---0-----0-----0---0-----0-----0---0-----0--|
G|----0-----0---------0-----0---------0-----0---------0-----0---------0----0-|
D|2-----2-----2---2-----2-----2---2-----2-----2---2-----2-----2---0-----0----|
A|---------------------------------------------------------------------------|
E|---------------------------------------------------------------------------|
                         Chords 1   G6     F#m    A      Em
e|2---2-----2-----2---0-----|-------3------2------0------0-|----------------|
B|--0---0-----0-----0-------|-------0------2------2------0-|----------------|
G|--------0-----0-----------|-------0------2------2------0-|Chords 1 x2-----|
D|0---0-----0-----0---2-----|-------2------4------2------2-|----------------|
A|--------------------------|-------2------4------0------2-|----------------|
E|--------------------------|-------3------2------0------0-|----------------|
Chords 2  Dsus    D     Dsus2   D   Chords3  Em*    D    Asus2
e|---------3------2------0------2-|----|-----3------2-----0--|--------------|
B|---------3------3------3------3-|----|-----0------3-----0--|--------------|
G|---------2------2------2------2-|x2--|-----0------2-----2--|x4------------|
D|---------0------0------0------0-|----|-----2------0-----2--|--------------|
A|---------0------0------0------0-|----|-----2------0-----0--|--------------|
E|---------0------0------0------0-|----|-----x------0-----0--|--------------|
Chords 4  Cadd9   CaddG    Cadd9    CaddG   G      C      G      C
e|---------0--------3-------0--------3------3------0------3------0-|--------|
B|---------3--------1-------3--------1------0------1------1------1-|--------|
G|---------0--------0-------0--------0------0------0------0------0-|x2------|
D|---------2--------2-------2--------2------0------2------2------2-|--------|
A|---------3--------3-------3--------3------2------3------3------3-|--------|
E|---------0--------0-------0--------0------3------0------0------0-|--------|
Chords 5  Cadd9   CaddG    Cadd9    CaddG   G
e|---------0--------3-------0--------3------3-----------3-------------------|
B|---------3--------1-------3--------1------0-------2-----------------------|
G|---------0--------0-------0--------0------0---0---------------------------|
D|---------2--------2-------2--------2------0-------------------------------|
A|---------3--------3-------3--------3------2-------------------------------|
E|---------0--------0-------0--------0------3-------------------------------|
^Play of these chords softer than last time.^ ^Play softer as you go down^

| /  slide up
| \  slide down
| h  hammer-on
| p  pull-off
| ~  vibrato
| +  harmonic
| x  Mute note
============================================================================
comments
We did not receive enough feedback on this tab! Please rate:
print report bad tab
1 2 3 4 5
I want to post or [tab]
guest
You may want to rate the tab now too:
select rating
Please do not post tabs as comments. Select "correction" instead!