Oops, an error
Loading. Please wait.

Stationary Motion - So Cold Tab

4 views 1 this week
no commentswrite comment
1 2 3 4 5
3 more votes to show rating
add to favorites
launch autoscroll
font size
0
reset
how to read this tab
guitar tuner
Autoscroll
slow
fast
+/-
esc
set tempo
stop
Help us to improve Ultimate-Guitar.com Take our survey!
×
Author
Difficulty
intermediate
e|---------------------|
B|---------------7+----|
G|-------12+-----------|
D|-----------12+-------|
A|----7+---------------|
E|---------------------|
                      x2
e|---------------------|---------------------|---------------------|---------------------|
B|---------------------|---------------------|---------------------|---------------------|
G|------------9--------|------------7--------|------------5--------|-------5-------5-----|
D|----------9----------|----------7----------|----------5----------|-----5---5---5---5---|
A|--------7------------|--------5------------|--------3------------|---3-------3---------|
E|---------------------|---------------------|---------------------|---------------------|

e|---------------------|---------------------|---------------------|---------------------|
B|---------8-----------|---------7-----------|------------5--------|------------5--------|
G|-------9---9---9-----|-------7---7---7-----|----------5----------|----------5----------|
D|-----9-------9-------|-----7-------7-------|--------5------------|--------5------------|
A|---7-----------------|---5-----------------|------3--------------|------3--------------|
E|---------------------|---------------------|---------------------|---------------------|

e|---------------------|---------------------|---------------------|---------------------|
B|---------8-----------|---------7-----------|------------5--------|------------5--------|
G|-------9---9---9-----|-------7---7---7-----|----------5----------|----------5----------|
D|-----9-------9-------|-----7-------7-------|--------5------------|--------5------------|
A|---7-----------------|---5-----------------|------3--------------|------3--------------|
E|---------------------|---------------------|---------------------|---------------------|

e|---------------------|---------------------|---------------------|---------------------|
B|---------8-----------|---------10----------|---------7-----------|-------------9-------|
G|-------9---9---9-----|------11----11----11-|-------7---7---7-----|-----------9---------|
D|-----9-------9-------|---11----------11----|-----7-------7-------|---------9-----------|
A|---7-----------------|-9-------------------|---5-----------------|-------7-------------|
E|---------------------|---------------------|---------------------|---------------------|

e|---------------------|---------------------|---------------------|---------------------|
B|---------8-----------|---------7-----------|------------5--------|------------5--------|
G|-------9---9---9-----|-------7---7---7-----|----------5----------|----------5----------|
D|-----9-------9-------|-----7-------7-------|--------5------------|--------5------------|
A|---7-----------------|---5-----------------|------3--------------|------3--------------|
E|---------------------|---------------------|---------------------|---------------------|

e|---------------------|---------------------|---------------------|---------------------|
B|---------8-----------|---------10----------|---------7-----------|-------------9-------|
G|-------9---9---9-----|------11----11----11-|-------7---7---7-----|-----------9---------|
D|-----9-------9-------|---11----------11----|-----7-------7-------|---------9-----------|
A|---7-----------------|-9-------------------|---5-----------------|-------7-------------|
E|---------------------|---------------------|---------------------|---------------------|

e|---------------------|---------------------|---------------------|---------------------|
B|---------8-8-8-8-8---|---------7-7-7-7-7---|---------5-5-5-5-5---|---------5-5-5-5-5---|
G|---9-9-9-------------|---7-7-7-------------|---5-5-5-------------|---5-5-5-------------|
D|---------------------|---------------------|---------------------|---------------------|
A|---7-7-7-7-7-7-7-7---|---5-5-5-5-5-5-5-5---|---3-3-3-3-3-3-3-3---|---3-3-3-3-3-3-3-3---|
E|---------------------|---------------------|---------------------|---------------------|

e|---------------------|---------------------|---------------------|---------------------|
B|---------8-8-8-8-8---|---------7-7-7-7-7---|--------------5------|--------------5------|
G|---9-9-9-------------|---7-7-7-------------|------5-5-5-5--------|------5-5-5-5--------|
D|---------------------|---------------------|---------------------|---------------------|
A|---7-7-7-7-7-7-7-7---|---5-5-5-5-5-5-5-5---|------3-3-3-3-3------|------3-3-3-3-3------|
E|---------------------|---------------------|---------------------|---------------------|

e|---------------------|---------------------|---------------------|---------------------|
B|---------8-8-8-8-8---|-----------9-9-9-9-9-|---------7-7-7-7-7---|--------------9------|
G|---9-9-9-------------|--10-10-10-----------|---7-7-7-------------|------9-9-9-9--------|
D|---------------------|---------------------|---------------------|---------------------|
A|---7-7-7-7-7-7-7-7---|--7--7--7--7-7-7-7-7-|---5-5-5-5-5-5-5-5---|------7-7-7-7-7------|
E|---------------------|---------------------|---------------------|---------------------|

e|---------------------|---------------------|---------------------|---------------------|
B|---------------------|---------------------|---------------------|---------------------|
G|------------9--------|------------7--------|------------5--------|---------------------|
D|----------9----------|----------7----------|----------5----------|---------------------|
A|--------7------------|--------5------------|--------3------------|---------------------|
E|---------------------|---------------------|---------------------|---------------------|

e|---------------------|---------------------|---------------------|---------------------|
B|---------------------|---------------------|---------------------|---------------------|
G|------------9--------|------------7--------|------------5--------|---------------------|
D|----------9----------|----------7----------|----------5----------|---------------------|
A|--------7------------|--------5------------|--------3------------|---------------------|
E|---------------------|---------------------|---------------------|---------------------|

e|---------------------|---------------------|---------------------|---------------------|
B|---------------------|---------------------|---------------------|---------------------|
G|---------------------|---------------------|---------------------|---------------------|
D|------------2--------|-------------2-------|-----------2---------|---------------------|
A|----------3----------|-----------2---------|---------3-----------|---------------------|
E|--------5------------|---------3-----------|-------1-------------|---------------------|

e|---------------------|---------------------|---------------------|---------------------|
B|---------------------|---------------------|---------------------|---------------------|
G|---------------------|---------------------|---------------------|---------------------|
D|------------2--------|-------------2-------|-----------2---------|---------------------|
A|----------3----------|-----------2---------|---------3-----------|---------------------|
E|--------5------------|---------3-----------|-------1-------------|---------------------|


************************************

| x  Dead note

************************************
Suggest correction
Give kudos to tab author, rate the tab!
1 2 3 4 5
comments
print report bad tab
guest
You may want to rate the tab now too:
select rating
Wanna post a correction for this tab? Suggest correction