Oops, an error
Loading. Please wait.

Steve Cash - If The Broncos Had A Kicker tab

13 views 1 this week
no commentswrite comment
1 2 3 4 5
3 more votes to show rating
add to favorites
×
Save as Personal and add changes to this tab that will be seen only by you. Learn more ›
×
You can save this tab as Personal to edit and correct it or add notes. All changes will be seen only by you. Learn more »
launch autoscroll
font size
0
reset
how to read this tab
guitar tuner
edit
Autoscroll
slow
fast
+/-
esc
set tempo
stop
Author
Difficulty
Tuning: Standard

[Intro]
e|---------------------------------|---------------------------------|
B|--(beat)-------------------------|---------------------------------|
G|---------------------------------|---------------------------------|
D|---------------------------------|-7-------------------------------|
A|---------------------------------|-7-------------------------------|
E|---------------------------------|-5-------------------------------|

[Verse 1]
(palm mute)
e|---------------------------------|---------------------------------|
B|---------------------------------|---------------------------------|
G|---------------------------------|---------------------------------|
D|-7---7---7---7---7---7---7---7---|-4---4---4---4---4---4---4---4---|
A|-7---7---7---7---7---7---7---7---|-4---4---4---4---4---4---4---4---|
E|-5---5---5---5---5---5---5---5---|-2---2---2---2---2---2---2---2---|

                                                         >       >
e|---------------------------------|---------------------------------|
B|---------------------------------|---------------------------------|
G|-7---7---7---7---9---9---9---9---|---------------------------------|
D|-7---7---7---7---9---9---9---9---|-7---7---7---7---7---7---7---7---|
A|-5---5---5---5---7---7---7---7---|-7---7---7---7---7---7---7---7---|
E|---------------------------------|-5---5---5---5---5---5---5---5---|

e|---------------------------------|---------------------------------|
B|---------------------------------|---------------------------------|
G|---------------------------------|---------------------------------|
D|-7---7---7---7---7---7---7---7---|-4---4---4---4---4---4---4---4---|
A|-7---7---7---7---7---7---7---7---|-4---4---4---4---4---4---4---4---|
E|-5---5---5---5---5---5---5---5---|-2---2---2---2---2---2---2---2---|

                                                     >   >   >   >
e|---------------------------------|---------------------------------|
B|---------------------------------|---------------------------------|
G|-7---7---7---7---9---9---9---9---|---------------------------------|
D|-7---7---7---7---9---9---9---9---|-7---7---7---7---7---7---7---7---|
A|-5---5---5---5---7---7---7---7---|-7---7---7---7---7---7---7---7---|
E|---------------------------------|-5---5---5---5---5---5---5---5---|

[Pre-Chorus]
e|---------------------------------|---------------------------------|
B|---------------------------------|---------------------------------|
G|-7-------6-----------------------|---------------------------------|
D|-7-------6-------9-------7-------|-2-----------------------x---x---|
A|-5-------4-------9-------7-------|-2-----------------------x---x---|
E|-----------------7-------5-------|-0-----------------------x---x---|

e|---------------------------------|---------------------------------|
B|---------------------------------|---------------------------------|
G|-----------------7-------7---7---|---------------------------------|
D|-7-------7---7---7-------7---7---|-7-------7---7---2-------2---2---|
A|-7-------7---7---5-------5---5---|-7-------7---7---2-------2---2---|
E|-5-------5---5-------------------|-5-------5---5---0-------0---0---|

[Chorus]
e|---------------------------------|---------------------------------||
B|---------------------------------|---------------------------------||
G|-7---7---7---7---7---7---7---7---|---------------------------------||
D|-7---7---7---7---7---7---7---7---|-7---7---7---7---7---7---7---7---||
A|-5---5---5---5---5---5---5---5---|-7---7---7---7---7---7---7---7---||
E|---------------------------------|-5---5---5---5---5---5---5---5---||
                                                                      |(x2)
e|---------------------------------|---------------------------------||
B|---------------------------------|---------------------------------||
G|-9---9---9---9---7---7---7---7---|---------------------------------||
D|-9---9---9---9---7---7---7---7---|-7---7---7---7---7---7---7---7---||
A|-7---7---7---7---5---5---5---5---|-7---7---7---7---7---7---7---7---||
E|---------------------------------|-5---5---5---5---5---5---5---5---||

[Pre-Chorus]
e|---------------------------------|---------------------------------|
B|---------------------------------|---------------------------------|
G|-7-------6-----------------------|---------------------------------|
D|-7-------6-------9-------7-------|-2-----------------------x---x---|
A|-5-------4-------9-------7-------|-2-----------------------x---x---|
E|-----------------7-------5-------|-0-----------------------x---x---|

e|---------------------------------|---------------------------------|
B|---------------------------------|---------------------------------|
G|-----------------7-------7---7---|---------------------------------|
D|-7-------7---7---7-------7---7---|-7-------7---7---2-------2---2---|
A|-7-------7---7---5-------5---5---|-7-------7---7---2-------2---2---|
E|-5-------5---5-------------------|-5-------5---5---0-------0---0---|

[Verse 2]
(palm mute)
e|---------------------------------|---------------------------------|
B|---------------------------------|---------------------------------|
G|---------------------------------|---------------------------------|
D|-7---7---7---7---7---7---7---7---|-4---4---4---4---4---4---4---4---|
A|-7---7---7---7---7---7---7---7---|-4---4---4---4---4---4---4---4---|
E|-5---5---5---5---5---5---5---5---|-2---2---2---2---2---2---2---2---|

                                                         >       
e|---------------------------------|---------------------------------|
B|---------------------------------|---------------------------------|
G|-7---7---7---7---9---9---9---9---|---------------------------------|
D|-7---7---7---7---9---9---9---9---|-7---7---7---7---7---7---7---7---|
A|-5---5---5---5---7---7---7---7---|-7---7---7---7---7---7---7---7---|
E|---------------------------------|-5---5---5---5---5---5---5---5---|

e|---------------------------------|---------------------------------|
B|---------------------------------|---------------------------------|
G|---------------------------------|---------------------------------|
D|-7---7---7---7---7---7---7---7---|-4---4---4---4---4---4---4---4---|
A|-7---7---7---7---7---7---7---7---|-4---4---4---4---4---4---4---4---|
E|-5---5---5---5---5---5---5---5---|-2---2---2---2---2---2---2---2---|

e|---------------------------------|---------------------------------|
B|---------------------------------|---------------------------------|
G|-7---7---7---7---9---9---9---9---|---------------------------------|
D|-7---7---7---7---9---9---9---9---|-7---7---7---7---7---7---7---7---|
A|-5---5---5---5---7---7---7---7---|-7---7---7---7---7---7---7---7---|
E|---------------------------------|-5---5---5---5---5---5---5---5---|

[Bridge]
e|---------------------------------|---------------------------------||
B|---------------------------------|---------------------------------||
G|---------------------------------|---------------------------------||
D|-4---4---4---4---4---4---4---4---|-2---2---2---2---2---2---2---2---||
A|-4---4---4---4---4---4---4---4---|-2---2---2---2---2---2---2---2---||
E|-2---2---2---2---2---2---2---2---|-0---0---0---0---0---0---0---0---||
                                                                      |(x2)
e|---------------------------------|---------------------------------||
B|---------------------------------|---------------------------------||
G|---------------------------------|---------------------------------||
D|-4---4---4---4---4---4---4---4---|-7---7---7---7---7---7---7---7---||
A|-4---4---4---4---4---4---4---4---|-7---7---7---7---7---7---7---7---||
E|-2---2---2---2---2---2---2---2---|-5---5---5---5---5---5---5---5---||

e|---------------------------------|---------------------------------|
B|-2---2---2---2---2---2---2---2---|-0---0---0---0---0---0---0---0---|
G|-2---2---2---2---2---2---2---2---|-1---1---1---1---1---1---1---1---|
D|-4---4---4---4---4---4---4---4---|-2---2---2---2---2---2---2---2---|
A|-4---4---4---4---4---4---4---4---|-2---2---2---2---2---2---2---2---|
E|---------------------------------|-0---0---0---0---0---0---0---0---|

e|---------------------------------|---------------------------------|
B|---------------------------------|---------------------------------|
G|---------------------------------|-----------------2---2---2---2---|
D|-7---7---7---7---7---7---7---7---|-4---4---4---4---4---4---4---4---|
A|-7---7---7---7---7---7---7---7---|-4---4---4---4---4---4---4---4---|
E|-5---5---5---5---4---4---4---4---|-2---2---2---2---2---2---2---2---|

[Pre-Chorus]
e|---------------------------------|---------------------------------|
B|---------------------------------|---------------------------------|
G|-7-------6-----------------------|---------------------------------|
D|-7-------6-------9-------7-------|-2-----------------------x---x---|
A|-5-------4-------9-------7-------|-2-----------------------x---x---|
E|-----------------7-------5-------|-0-----------------------x---x---|

e|---------------------------------|---------------------------------|
B|---------------------------------|---------------------------------|
G|-----------------7-------7---7---|---------------------------------|
D|-7-------7---7---7-------7---7---|-7-------7---7---2-------2---2---|
A|-7-------7---7---5-------5---5---|-7-------7---7---2-------2---2---|
E|-5-------5---5-------------------|-5-------5---5---0-------0---0---|

[Chorus]
e|---------------------------------|---------------------------------||
B|---------------------------------|---------------------------------||
G|-7---7---7---7---7---7---7---7---|---------------------------------||
D|-7---7---7---7---7---7---7---7---|-7---7---7---7---7---7---7---7---||
A|-5---5---5---5---5---5---5---5---|-7---7---7---7---7---7---7---7---||
E|---------------------------------|-5---5---5---5---5---5---5---5---||
                                                                      |(x2)
e|---------------------------------|---------------------------------||
B|---------------------------------|---------------------------------||
G|-9---9---9---9---7---7---7---7---|---------------------------------||
D|-9---9---9---9---7---7---7---7---|-7---7---7---7---7---7---7---7---||
A|-7---7---7---7---5---5---5---5---|-7---7---7---7---7---7---7---7---||
E|---------------------------------|-5---5---5---5---5---5---5---5---||

[Pre-Chorus]
e|---------------------------------|---------------------------------|
B|---------------------------------|---------------------------------|
G|-7-------6-----------------------|---------------------------------|
D|-7-------6-------9-------7-------|-2-------------------------------|
A|-5-------4-------9-------7-------|-2-------------------------------|
E|-----------------7-------5-------|-0-------------------------------|

e|---------------------------------|
B|---------------------------------|
G|-6-------------------------------|
D|-7-------------------------------|
A|-7-------------------------------|
E|-5-------------------------------|


************************************

| x   Mute note
| >   no palm mute

************************************

            
            
Suggest correction
Creating personal tab
Creating personal tab
You can edit any tab online and save it as your Personal.

You can edit, replace or remove any tab part or add personal notes – all changes will be seen only by you.

Personal tabs can be accessed anytime from any device, even offline.
Learn more »
Give kudos to tab author, rate the tab!
1 2 3 4 5
comments
print report bad tab
guest
You may want to rate the tab now too:
select rating
Wanna post a correction for this tab? Suggest correction