Oops, an error
Loading. Please wait.

Steven Georgiou - A Little Present For You Chords

83 views 1 this week
no commentswrite comment
1 2 3 4 5
please rate
add to favorites
launch autoscroll
font size
0
reset
transpose
0
reset
simplify chords
display chords
guitar tuner
Autoscroll
slow
fast
+/-
esc
set tempo
stop
Help us to improve Ultimate-Guitar.com Take our survey!
×
Author
Capo
5th fret
Song: A little gift for you
Artist: Steven Georgiou (Me)

Capo on 5th Fret (All chords related to capo)

INTRO

e|--------0--------------0-----|
B|-----2---2-2--------2--------|
G|----2-2---2-2------1-1-------|
D|---2---2----------2---2------|
A|--0--------------0-----------|
E|-----------------------------|

e|--------0------------2-2h3-2-|
B|-----2---2-2--------2-2------|
G|----0-0---0-0------2---------|
D|---2---2----------0----------|
A|--0--------------------------|
E|-----------------------------|


A
Hey Liane don’t you know we’re here to sing for you,
AM7
But the problem is that we’ve got no other songs to choose,
A7
All your favorite songs is a little complicated,
DM7
So please listen for our little gift for you,

Chorus:
A                        AM7
Happy, happy birthday to you,
A7
There are more birthdays to come,
DM7
But this one’s a little special for you.
A                        AM7
Happy, happy birthday to you,
A7
Please celebrate with us,
DM7
Please elebrcate with some…
A
“Friends that will never leave you,
AM7
Friends that will NEVER break you,
A7
Friends that will always make you laugh,
DM7
And friends that you could always rely at” 2x”
A, AM7, A7, DM7
Bridge:
Dm
I know that sometimes life gets hard,
F
But please don’t forget about us,
C
Don’t forget about the friends
G
That could always make you laugh



Dm
We’ll always be there beside you,
F
Even though we’re far,
C
We could always help you,
G
With just a little prayer, just a little prayer 

 (Repeat Chorus then fade using either chords or plucking twice, it’s just the same. )
(A, AM7, A7, DM7)

:: Happy Birthday Liane Stephanie Amante :: {She's a good friend of mine!}
            <<< My first composition Finished :) >>> 

(i start making it dec.6 1am and finished it at 7am after sleeping at 2am )


      A  AM7    A7    DM7             
e|----0---0------0-----2---|
B|----2---2------2-----2---|
G|----2---1------0-----2---|
D|----2---2------2-----0---|
A|----0---0------0-----0---|
E|----x---x------x-----x---|

   Dm   F   C   G

e|--1---1---0----3---------|
B|--3---1---1----3---------|
G|--2---2---0----0---------|
D|--0---3---2----0---------|
A|--0---3---3----2---------|
E|--x---1---x----3---------|
Suggest correction
Give kudos to tab author, rate the tab!
1 2 3 4 5
comments
print report bad tab
guest
You may want to rate the tab now too:
select rating
Please do not post tabs as comments. Select "correction" instead!