Oops, an error
Loading. Please wait.

Steven Georgiou - Friendz And Family Chords

30 views 1 this week
no commentswrite comment
1 2 3 4 5
please rate
add to favorites
launch autoscroll
font size
0
reset
transpose
0
reset
simplify chords
display chords
guitar tuner
Autoscroll
slow
fast
+/-
esc
set tempo
stop
Help us to improve Ultimate-Guitar.com Take our survey!
×
Author
Difficulty
intermediate
Title: Friendz and Family
Artist: Steven Georgiou (Me)

Just follow the chords bellow, the bottom to be exact. I used those chords instead coz 
there are no names for the chords that I used in my composition. :)

INTRO
e|--------0----------0---------0----------0----|
B|-----3---3-3-----2--------2---3-3-----2------|
G|----2-2---2-2--2--2------0-0---0-0--0--0-----|
D|---0---0--------0-------0---0--------2-------|
A|--2------------2-------2------------0--------|
E|---------------------------------------------|

        E7sus           E7sus
I WAS THINKING OF THEM, BUT SUDDENLY I REALIZED,
    Em7                      A7
HOW IMPORTANT THEY WERE TO ME,
                                 E7sus
THEY'RE NOT JUST THERE TO HELP ME,
                         E7sus                               Em7                       A7
BUT THEY'RE ALSO THERE TO SHOW ME, HOW BEAUTIFUL THE WORLD COULD BE
         E7sus                             E7sus                            
Em7                             A7
IN ALL BEAUTIFUL MEMORIES, THEY ARE ALL THERE, OH I WISHED THAT, THAT DAY NEVER ENDED


BRIDGE
       E                                    G
OH HOW BEAUTIFUL IT WAS TO ME,
                                        D
THEY ARE ALL THERE AS THEY COULD BE,
                                    A
CHANGING MY POINT OF VIEW TOWARDS THE WORLD OF SINS AND DESPAIR


PRE-CHORUS
E7sus
I AM SO THANKFUL FOR THEM TO BE BESIDE ME
E7sus                                                           Em7
NO MATTER HOW THE TRADEGY IS BIG AS IF IT WOULD KILL ME,
                                A7
THEY ARE ALWAYS THERE FOR ME.
E7sus                           E7sus/A
THANK YOU GOD, FOR THESE WONDERFUL PERSONS
        Em7                     A7
THAT YOU GAVE TO ME, AS PRECIOUS PRESENTS FOR ME


CHORUS:
E7sus
FRIENDS AND FAMILY, FAMILY AND FRIENDS
E7sus
THEY 'ARE ALL SPECIAL, SO IMPORTANT TO ME
Em7
THEY ARE AS SWEET AS HONEY, AND I LOVE THEM AS A BEE
A7
I CARE SO MUCH ABOUT THEM AND THEY'RE THE SAME TO ME



REP BRIDGE

THEN PRE CHORUS THEN FADE
E7sus   E7sus           Em7       A7   Em         G         D        A

e|--0------0------------0----------0------0------3-----2-----0-------|
B|--3------2------------3----------2------0------3-----3-----2-------|
G|--2------2------------0----------0------0------0-----2-----2-------|
D|--0------0------------0----------2------2------0-----0-----2-------|
A|--2------2------------2----------0------2------2-----0-----0-------|
E|--x------x------------x----------x------x------3-----0-----0-------|

My 2nd composition finished : )
Suggest correction
What's this?
You can suggest a correction to this tab. Community and Mods will review your correction and vote to approve or reject it.
comments
We did not receive enough feedback on this tab! Please rate:
print report bad tab
1 2 3 4 5
guest
You may want to rate the tab now too:
select rating
Please do not post tabs as comments. Select "correction" instead!