Oops, an error
Loading. Please wait.

Streak - Simply bass

122 views 1 this week
no commentswrite comment
1 2 3 4 5
3 more votes to show rating
add to favorites
×
Save as Personal and add changes to this tab that will be seen only by you. Learn more ›
×
You can save this tab as Personal to edit and correct it or add notes. All changes will be seen only by you. Learn more »
launch autoscroll
font size
0
reset
guitar tuner
edit
Autoscroll
slow
fast
+/-
esc
set tempo
stop
Author
Difficulty
Song: Simply...
Artist: Streak
Album: Rachel's Shed
Tabbed by: Jack McLachlan (jack787@gmail.com)

The bass comes in when Lauren sings the line "I Love You".
The slide starts on the word "Love" and the first note is on "You".
The slides aren't usually there but I think it sounds so much cooler.

 Bridge
G|-----------------------------|
D|----------------10-----------|
A|-----------------------------|
E|--\-8-8-0-8-8------8-8-0-8-8-|

Verse 1
G|---------------------------------------------------------------|
D|---------------------------------------------------------------|
A|---------------------------------------------------------------|
E|--0/--8-8-0-8-8h10--\--3-3-0-3-3h5-\--1-1-0-1-1--1/--3-3-0-3-3-|

Verse 2
G|---------------------------------------------------------------|
D|---------------------------------------------------------------|
A|-03-3-0-3-3h5--------------------------03-3-0-3-3--------------|
E|--------------3-3-0-3-3h5-\--1-1-0-1-1-------------------------|

Chorus
G|---------------------------------------------------------------|
D|-----------------------3-1-------------------------------------|
A|-3-3-------0-3-3----------3-1-3-3------------------------------|
E|-----0-1-1-------0-1-1------------0-1-1--(1/3)-3---------------|

Inter Chorus
G|---------------------------------------------------------------|
D|---------------------------------------------------------------|
A|-3-3-3-3-3-3-3-3-----------------------------------------------|
E|---------------------------------------------------------------|

Guitar Solo
G|---------------------------------------------------------------|
D|---------------------------------------------------------------|
A|--~/15-~/15-~/15-~/15------------------------------------------|
E|---------------------------------------------------------------|

Outro
G|---------------------------------------------------------------|
D|---------------------------------------------------------------|
A|-3-3-3-3----3-3-3-3----3-3-3-3---3-3-3-3--~/15(hold till fade--|
E|---------------------------------------------------------------|


Order:

Bridge x1
  Verse 1 x1
    Verse 2 x3
      Chorus x1
        Inter Chorus x1
          Chorus x1
            Guitar Solo x1
              Chorus x1
                Outro x1


Comments or for a copy of the song if you don't have one (I have the copyrights for the 
and songs) email me at the address at the top.
If its a comment on my tabbing ability this is my first so don't be harsh!

Jack (Bassist of Streak)

            
            
Suggest correction
Creating personal tab
Creating personal tab
You can edit any tab online and save it as your Personal.

You can edit, replace or remove any tab part or add personal notes – all changes will be seen only by you.

Personal tabs can be accessed anytime from any device, even offline.
Learn more »
Give kudos to tab author, rate the tab!
1 2 3 4 5
comments
print report bad tab
guest
You may want to rate the tab now too:
select rating
Wanna post a correction for this tab? Suggest correction