Oops, an error
Loading. Please wait.

Strike X - Here Tab

75 views 1 this week
no commentswrite comment
1 2 3 4 5
3 more votes to show rating
add to favorites
launch autoscroll
font size
0
reset
how to read this tab
guitar tuner
Autoscroll
slow
fast
+/-
esc
set tempo
stop
Help us to improve Ultimate-Guitar.com Take our survey!
×
Author
Tabbers playing skills
intermediate
-------------------------------------------------------------------------------
Here – Strike X
-------------------------------------------------------------------------------
Tabbed by: Sam Perry
Email: sam_axeman@austarnet.com.au

Tuning: Standard (EADGBe)

Riff 1: x2  (Clean)
e|----------------------------------------------------------3p2------|
B|------------------------------------------------------3-------3----|
G|---------------------0---0---0-------0---0---0------2---2-------2--|
D|-----0---0---0-----2---2---2---2---2---2---2---2--0----------------|
A|---2---2---2---2-3---------------2---------------------------------|
E|-3-----------------------------------------------------------------|

Riff 2: x1  (Distortion)
e|------------------------------------------|
B|------------------------------------------|
G|------5----9----7----------5---------5----|
D|-5----5-x8-9-x8-7-x8--5----5-x8-2----5-x8-|
A|-5-x8-3----7----5-----5-x8-3----2-x8-3----|
E|-3--------------------3---------0---------|

Riff 1: x1  (Clean)
e|----------------------------------------------------------3p2------|
B|------------------------------------------------------3-------3----|
G|---------------------0---0---0-------0---0---0------2---2-------2--|
D|-----0---0---0-----2---2---2---2---2---2---2---2--0----------------|
A|---2---2---2---2-3---------------2---------------------------------|
E|-3-----------------------------------------------------------------|

Verse 1: x4  (Clean)
e|-3------3-----0-----2----|
B|-3------3-----0-----3----|
G|-0------0-x8--0-----2-x8-|
D|-0-x8---2-----2-x8--0----|
A|-2------3-----2----------|
E|-3------------0----------|

Pre-chorus: x1
 |----clean-------|-Distortion-|
e|-3-----0-----3-----2---------|
B|-3-----0-----3-----3---------|
G|-0-x8--0-----0-x8--2-x8------|
D|-2-----2-x8--2-----0---------|
A|-3-----2-----3---------------|
E|-------0---------------------|
P.M.                 *

Chorus: x1  (Distortion)
e|------------------------------------------|
B|------------------------------------------|
G|------5----9----7----------5---------5----|
D|-5----5-x8-9-x8-7-x8--5----5-x8-2----5-x8-|
A|-5-x8-3----7----5-----5-x8-3----2-x8-3----|
E|-3--------------------3---------0---------|

Post-Chorus: x1  (Distortion)
e|-------------------------------|
B|-------------------------------|
G|-5---------5---------5----7----|
D|-5-x2-2----5-x2-2----5-x8-7-x8-|
A|-3----2-x2-3----2-x2-3----5----|
E|------0---------0--------------|

Riff 1: x1  (Clean)
e|----------------------------------------------------------3p2------|
B|------------------------------------------------------3-------3----|
G|---------------------0---0---0-------0---0---0------2---2-------2--|
D|-----0---0---0-----2---2---2---2---2---2---2---2--0----------------|
A|---2---2---2---2-3---------------2---------------------------------|
E|-3-----------------------------------------------------------------|


Verse 1: x2  (Distortion)
   e|-3------3-----0-----2----|
   B|-3------3-----0-----3----|
   G|-0------0-x8--0-----2-x8-|
   D|-0-x8---2-----2-x8--0----|
   A|-2------3-----2----------|
   E|-3------------0----------|
P.M.  *      *     *     *

Pre-chorus: x1 (Distortion)
   e|-3-----0-----3-----2---------|
   B|-3-----0-----3-----3---------|
   G|-0-x8--0-----0-x8--2-x8------|
   D|-2-----2-x8--2-----0---------|
   A|-3-----2-----3---------------|
   E|-------0---------------------|
P.M.  *     *     *     *
                   |-Build-up-|

Chorus: x1  (Distortion)
e|------------------------------------------|
B|------------------------------------------|
G|------5----9----7----------5---------5----|
D|-5----5-x8-9-x8-7-x8--5----5-x8-2----5-x8-|
A|-5-x8-3----7----5-----5-x8-3----2-x8-3----|
E|-3--------------------3---------0---------|

Post-Chorus: x1  (Distortion)
e|-------------------------------|
B|-------------------------------|
G|-5---------5---------5----7----|
D|-5-x2-2----5-x2-2----5-x8-7-x8-|
A|-3----2-x2-3----2-x2-3----5----|
E|------0---------0--------------|

Solo:  (Distortion)
e|-3-----10----12-----10----|
B|-3-x8--8—x8--12-x8--10-x8-|
G|--------------------------|
D|--------------------------|x2
A|--------------------------|
E|--------------------------|

e|-3/7-3----------8/12-8----------7/12-7-------------------------|
B|-------5---------------10--------------8-----------------------|
G|---------4-4-4------------9-9-9----------9-9-9--2-2-2-2b-2-2-2-|
D|---------------------------------------------------------------|
A|---------------------------------------------------------------|
E|---------------------------------------------------------------|

e|-3/7-3----------8/12-8----------12/15-12-------------|--------------------|
B|-------5---------------10----------------12----------|-15------Slight Bend|
G|---------4-4-4------------9-9-9-------------12-12-12-|-14-x16-------------|
D|-----------------------------------------------------|--------------------|
A|-----------------------------------------------------|--------------------|
E|-----------------------------------------------------|--------------------|

Post Solo/bridge: x4  (Distortion)            4th time replace 2nd bar with this:
e|---------------------|---------------------| |-------|
B|---------------------|---------------------| |-------|
G|-5-5-5--5-5-5--5-5-5-|---------------------| |-7-----|
D|-5-5-5--5-5-5--5-5-5-|-2-2-2--2-2-2--2-2-2-| |-7-x16-| Bend
A|-3-3-3--3-3-3--3-3-3-|-2-2-2--2-2-2--2-2-2-| |-5-----|
E|---------------------|-0-0-0--0-0-0--0-0-0-| |-------|

Pre Chorus: x2  (Clean)                             2nd time replace 2nd bar with 
                                                    This: (Distortion)
e|-------------------------------------------------|-2-| |-2-2-2-2-2-2-2-2-----
B|-------------------------------------------------|-3-| |-3-3-3-3-3-3-3-3-----
G|---------------------0---0---0-------0---0---0---|-2-| |-2-2-2-2-2-2-2-2-----
D|-----0---0---0-----2---2---2---2---2---2---2---2-|-0-| |-0-0-0-0-0-0-0-0-----
A|---2---2---2---2-3---------------2---------------|---| |---------------------
E|-3-----------------------------------------------|---| |---------------------
P.M.                                                       * * * * * * * *
                                                           (Slow Release)

Chorus: x1  (Distortion) Play 1st bar again on the end
e|---------------------|---------------------|
B|---------------------|---------------------|
G|------5----9----7----|------5---------5----|
D|-5----5-x8-9-x8-7-x8-|-5----5-x8-2----5-x8-|
A|-5-x8-3----7----5----|-5-x8-3----2-x8-3----|
E|-3-------------------|-3---------0---------|

Post-Chorus: x1  (Distortion)
e|-------------------------------|
B|-------------------------------|
G|-5---------5---------5----7----|
D|-5-x2-2----5-x2-2----5-x8-7-x8-|
A|-3----2-x2-3----2-x2-3----5----|
E|------0---------0--------------|

Outro: x2
e|---------------------|
B|---------------------|
G|------5----9----7----|
D|-5----5-x8-9-x8-7-x8-|
A|-5-x8-3----7----5----|
E|-3-------------------|

End on:
e|---|
B|---|
G|---|
D|-5-|
A|-5-|
E|-3-|

| /  slide up
| \  slide down
| h  hammer-on
| p  pull-off
| ~  vibrato
| +  harmonic
| x  Mute note
===============================================================================

Suggest correction
Give kudos to tab author, rate the tab!
1 2 3 4 5
comments
print report bad tab
guest
You may want to rate the tab now too:
select rating
Wanna post a correction for this tab? Suggest correction