Oops, an error
Loading. Please wait.

Strike X - My Juliet Bass Tab

77 views 1 this week
no commentswrite comment
1 2 3 4 5
3 more votes to show rating
add to favorites
launch autoscroll
font size
0
reset
guitar tuner
Autoscroll
slow
fast
+/-
esc
set tempo
stop
Help us to improve Ultimate-Guitar.com Take our survey!
×
Author
Tabbers playing skills
intermediate +
My Juliet Bass Tab
By Strike X

Standard Tuning

Verse 1
REST

Bass Comes in with Drums
G|--------------------------------|
D|--------------------------------|
A|--------------------4--------0--|      x2
E|--0--------4--------------------|

Chorus
G|--------------------------------|
D|--------------------------------|
A|--4--------0--------4--------2--|      x2
E|--------------------------------|

REST
(while guitar plays Intro)

Verse 2
G|--------------------------------|
D|--------------------------------|
A|--------------------4--------0--|      x2
E|--0--------4--------------------|

G|-----------------------------------|
D|-----------------------------------|
A|------------------4-4-444-2-2-222--|      x2
E|--0-0-000-4-4-444------------------|


Chorus
G|-------------------------------------------|
D|-------------------------------------------|
A|--4-4-444-0-0-000-4-4-444-2-2-222----------|      x2
E|-------------------------------------------|


Bridge  (with Distortion)
G|-----------------------------------|
D|-----------------------------------|
A|----------4-4-444-0-0-000-2-2-222--|      x2
E|--0-0--44--------------------------|

G|-------------|
D|-------------|
A|----------4--|      x2
E|--0-0--44----|


REST
(During opening riff)

Chorus (with Distortion)
G|--------------------------------------|
D|--------------------------------------|
A|--4-4-444--0-0-000--4-4-444--2-2-222--|      x2
E|--------------------------------------|


I know this tab is 100% correct as I wrote the song. You can hear this song on Strike 
Myspace site www.myspace.com/strikexband
You can also see the music video on Youtube (just search for My Juliet Strike X)

Hope you like the song
Peace out BassMANDolbz
Suggest correction
Give kudos to tab author, rate the tab!
1 2 3 4 5
comments
print report bad tab
guest
You may want to rate the tab now too:
select rating
Wanna post a correction for this tab? Suggest correction