Oops, an error
Loading. Please wait.

Strike X - My Juliet Tab

117 views 1 this week
1 commentread comment
1 2 3 4 5
excellent!
x 1
add to favorites
launch autoscroll
font size
0
reset
how to read this tab
guitar tuner
Tab Pro tools
  • play this tab
  • loop segment
  • change instrument
  • show fretboard
  • metronome
Autoscroll
slow
fast
+/-
esc
set tempo
stop
Contributor
Difficulty
Tabbers playing skills
intermediate
intermediate
-------------------------------------------------------------------------------
My Juliet – Strike X
-------------------------------------------------------------------------------
Tabbed by: GuitarMan2207 (Sam Perry)
Email: Sam_axeman@austarnet.com.au

Tuning: Standard – EADGBe With a capo on 9th fret

Chords:	E (G Shape)  Bsus4/Eb   Dbm7	Aadd9
e|--------12-----------12---------12--------12-------------------------------|
B|--------12-----------12---------12--------12-------------------------------|
G|--------9------------11---------9---------9--------------------------------|
D|--------9------------9----------11--------11-------------------------------|
A|--------11-----------9----------11--------12-------------------------------|
E|--------12-----------11---------9---------9--------------------------------|

Intro Riff: x2
   E		 Bsus4/Eb	Dbm7		Aadd9
e|------12---------------12--------------12--------------12------------------|
B|---------12---------------12--------------12--------------12---------------|
G|----9---------------11--------------9---------------9----------------------|
D|-------------------------------------------------------------9h11p9--------|
A|----------------------------------------------9-12-------------------------|
E|-12---------12--11------------11-9-----------------------------------------|

Verse 1: x4
	  E	   Bsus4/Eb	Dbm7	Aadd9
e|--------12-----------12---------12--------12---------------------------------|
B|--------12-----------12---------12--------12---------------------------------|
G|--------9------------11---------9---------9----------------------------------|
D|--------9------------9----------11--------11--9h11p9-leave-this-off-4--------|th-time
A|--------11-----------9----------11--------12---------------------------------|
E|--------12-----------11---------9---------9----------------------------------|
         (Paint a......picture....put your..wall)
Chorus: x2
   Dbm7	  Aadd9	  Dbm7	  Bsus4/Eb
e|--12------12------12-------12----------------------------------------------|
B|--12------12------12-------12----------------------------------------------|
G|--9-------9-------9--------11----------------------------------------------|
D|--11------11------11-------9-----------------------------------------------|
A|--11------12------11-------9-----------------------------------------------|
E|--9-------9-------9--------11----------------------------------------------|
   (Cos I miss you. You I...forget)
Pre-verse: x1
    	 E	     Busu4/Eb	  Dbm7           Aadd9
e|--------12---12----12--12----12----12--12---12----12-12-----12-------------|
B|--------12------12-12--12-------12-12--12------12-12-12--------12----------|
G|--------9--9-------9---11-11-------11--9--9-------9--9----9----------------|
D|--------9----------9---9-----------9---11---------9--11------------9h11p9--|
A|--------11---------11--9-----------9---11---------9--12--------------------|
E|--------12---------12--11----------11--9----------9--9---------------------|
      (My Juliet..................My Juliet........................)
Verse 2: x4
	  E	   Bsus4/Eb	Dbm7	Aadd9
e|--------12-----------12---------12--------12---------------------------------|
B|--------12-----------12---------12--------12---------------------------------|
G|--------9------------11---------9---------9----------------------------------|
D|--------9------------9----------11--------11--9h11p9-leave-this-off-4--------|th-time
A|--------11-----------9----------11--------12---------------------------------|
E|--------12-----------11---------9---------9----------------------------------|

Chorus: x2
   Dbm7	  Aadd9	  Dbm7	  Bsus4/Eb
e|--12------12------12-------12----------------------------------------------|
B|--12------12------12-------12----------------------------------------------|
G|--9-------9-------9--------11----------------------------------------------|
D|--11------11------11-------9-----------------------------------------------|
A|--11------12------11-------9-----------------------------------------------|
E|--9-------9-------9--------11----------------------------------------------|

Bridge: x3
	E    Bsus4/Eb  Dbm7    Aadd9   Bsus4/Eb
e|------12----12--------12------12------12-------------------------------------|
B|------12----12--------12------12------12-------------------------------------|
G|------9-----11--------9-------9-------11—leave-Aadd9-and-Bsus4/Eb-off-3------|rd-time
D|------9-----9---------11------11------9--------------------------------------|
A|------11----9---------11------12------9--------------------------------------|
E|------12----11--------9-------9-------11-------------------------------------|
       (Somewhere some..how.....thing...I’d look into your eyes and say)
Intro Riff (Changed): x1
   E		 Bsus4/Eb	Dbm7		Aadd9
e|------12---------------12--------------12----------------------------------|
B|---------12---------------12--------------12-------------------------------|
G|----9---------------11--------------9--------------------------------------|
D|---------------------------------------------------------------------------|
A|----------------------------------------------9-12-------------------------|
E|-12---------12--11------------11-9-----------------------------------------|
       (Paint.....picture.............put.......a wall)

Chorus: x4
   Dbm7	  Aadd9	  Dbm7	  Bsus4/Eb
e|--12------12------12-------12----------------------------------------------|
B|--12------12------12-------12----------------------------------------------|
G|--9-------9-------9--------11----------------------------------------------|
D|--11------11------11-------9-----------------------------------------------|
A|--11------12------11-------9-----------------------------------------------|
E|--9-------9-------9--------11----------------------------------------------|

Outro: x1
   E		 Bsus4/Eb	Dbm7		Aadd9		    E
e|------12---------------12--------------12--------------12-------------12---|
B|---------12---------------12--------------12--------------12----------12---|
G|----9---------------11--------------9---------------9-----------------9----|
D|-------------------------------------------------------------9h11p9---9----|
A|----------------------------------------------9-12--------------------11---|
E|-12---------12--11------------11-9------------------------------------12---|

I added a few of the lyrics below the lines to make it easier to play along with the song.

This is 100% correct! As I am the guitarist in the band that plays it, and this is 
how it is played.

To listen to the song, visit my homepage or:
http://artists.ultimate-guitar.com/strike-x/music

And listen to My Juliet.

Any comments or questions, contact me at my e-mail address above, or e-mail my UG page.

Thanks!

| /  slide up
| \  slide down
| h  hammer-on
| p  pull-off
| ~  vibrato
| +  harmonic
| x  Mute note
===============================================================================
comments
We did not receive enough feedback on this tab! Please rate:
print report bad tab
1 2 3 4 5
1 comment total.
0 reply
hulkthebassist wrote on April 28 2008, 08:16 pm

yay i was ur first comment XP
anyways good song

I want to post or [tab]
guest
You may want to rate the tab now too:
select rating
Please do not post tabs as comments. Select "correction" instead!