Oops, an error
Loading. Please wait.

Stuck In Your Radio - Stuck In Your Radio Bass Tab

6,638 views 3 this week
no commentswrite comment
1 2 3 4 5
1 last vote to show rating
add to favorites
launch autoscroll
font size
0
reset
guitar tuner
Autoscroll
slow
fast
+/-
esc
set tempo
stop
Help us to improve Ultimate-Guitar.com Take our survey!
×
Author
Difficulty
novice
Tabbed by: Magnus Berger (EinerHjar)(Einerhjarhd@gmail.com)
Band: Stuck In Your Radio
Song: Stuck In Your Radio (S.I.Y.R)

So this is the first time I have ever made tabs for a song, so probably not the 
best setup in the world.
This song is also learned by ear, and I am 100% sure that it is correct.



Intro
G|------------------------------------------------------------|
D|------------------------------------------------------------|
A|----------5-----------------------------5-------------------|
E|---3-3---------7-7-7----5-7-5---3-3-----------7~----7(*8)---|


Verse x3
G|------------------------------------------------------|
D|------------------------------------------------------|
A|------------------------------------------------------|
E|-7-7---5---3-3-3---5-7-5-3---7-7---5---3-3-3----------|

Verse part 2 
G|--------------------------------------------------------|
D|--------------------------------------------------------|
A|--------------------------------------------------------|
E|-7-7---5---3-3-3---5-7-5-3---7-7---5---5(*6)------------|



Chorus x2
G|--------------------------------------------------------|
D|--------------------------------------------------------|
A|--5-5-5-------------------------------------------------|
E|---------5---3-3-3-3---7-7-7-7---5-5-5------------------|


Breakdown x4
G|--------------------------------------------------------|
D|--------------------------------------------------------|
A|--------------------------------------------------------|
E|---7~---3-3-3--5-5--------------------------------------|

Buildup:
Intro
Verse
Verse part 2
Chorus
Intro
Verse
Verse part 2
Chorus
Breakdown
Chorus
end
Suggest correction
Give kudos to tab author, rate the tab!
1 2 3 4 5
comments
print report bad tab
guest
You may want to rate the tab now too:
select rating
Wanna post a correction for this tab? Suggest correction