Oops, an error
Loading. Please wait.

Stuck Lucky - Someone Just Like You Bass Tab

177 views 1 this week
1 commentread comment
1 2 3 4 5
excellent!
x 1
add to favorites
launch autoscroll
font size
0
reset
guitar tuner
Tab Pro tools
  • play this tab
  • loop segment
  • change instrument
  • show fretboard
  • metronome
Autoscroll
slow
fast
+/-
esc
set tempo
stop
Contributor
Stuck Lucky - Someone Just like You: Bass Tabbed by Hayden (HaydeN64)
Tuning: Standard  
key:
~ let the note ring [or hold it slightly longer than the rest of the tempo atleast]
> strum 8 times

Intro:
E|-8~|

Verse: 
G|--------------------------------------------------|
D|----10--8--7-----5--6--8-----8--6--5-----7--8--10-|
A|--------------6-----------------------8-----------|
E|-8------------------------6-----------------------| 

Alternative Verse:
G|--------------------------------------------------|
D|-----------------9--7--5-----------------7--8--10-|
A|----10--8--5--7--------------8--6--5--8-----------|
E|-8------------------------6-----------------------|

Break Down:
G|--------------------------------------------------|
D|-----------------------------7~-7-7----------9-10-|
A|--------7--8-----7-8--8-8-8---------10-10-10------|
E|-8-8-8-------8~-----------------------------------|

Final Verse:
G|-----------------------------------|
D|-----4>-----5>------4>-----5--5----|
A|-5>-----3>------5>-----3>--------5~|
E|-----------------------------------|

Order:-
Intro x1 [let guitar verse go once, and play at the start of the second verse]
Verse x8 [come in after 2 cycles of the guitar verse]
Alternative Verse x2
Verse x4
Alternative verse x2
Breakdown x4
verse x4
Final x1

Hope it sounds right for you, I listened carefully to get it as close as i could :)
comments
We did not receive enough feedback on this tab! Please rate:
print report bad tab
1 2 3 4 5
1 comment total.
0 reply
henryy23 wrote on June 14 2012, 03:34 pm

dude this is too sick!! good job.

I want to post or [tab]
guest
You may want to rate the tab now too:
select rating
Please do not post tabs as comments. Select "correction" instead!