Oops, an error
Loading. Please wait.

Stupid Stupid Henchmen - Label Me Insane Bass Tab

400 views 6 this week
1 commentread comment
1 2 3 4 5
please rate
add to favorites
launch autoscroll
font size
0
reset
guitar tuner
Tab Pro tools
  • play this tab
  • loop segment
  • change instrument
  • show fretboard
  • metronome
Autoscroll
slow
fast
+/-
esc
set tempo
stop
Contributor
Difficulty
Not much tabs for this band so i learned by ear and decided to add some tabs for it.
BASS PART IS PRETTY FUN

Verse One
G-----------------------------------------------------------------------]
D-------------4-4---1-1-1-1-1-1-1-1-------------------------------------]
A-2-2-2-2-2-2-----------------------1-1-1-1-1-1-1-1---2-2-2-2-2-2-2-2---]
E-----------------------------------------------------------------------]
Verse Two
G--------------------------------------------]
D--------------------1-1-1-1-----------------]
A-2-2-2-2---1-1-1-1--------------------------]
E----------------------------2-2-2-2---------]
Slow Part
G----------------------------------------][----------------------------]
D---4-2-1----3-1-0----3-1-0--------0-2---][----------------------------]
A-2--------1--------1--------2-2-2-------][-22222-11111-11111-22222----]
E----------------------------------------][----------------------------]
Fast Past not sure but uses...
D-----1-and--------]
A-2-,-------1------]


comments
We did not receive enough feedback on this tab! Please rate:
print report bad tab
1 2 3 4 5
1 comment total.
0 reply
Canttellwhat wrote on May 31 2010, 07:30 pm

since there's no tabs or chords for this band; i figure i should contribute.
Oh No No BY The stupid stupid henchmen.
Verse - D A Bm A -> D A Bm Bm ~x2 ~ "I've been across the..."
Chorus - G Gb A ~"No no no" (Bar Chords)
Play ska style. enjoy

I want to post or [tab]
guest
You may want to rate the tab now too:
select rating
Please do not post tabs as comments. Select "correction" instead!