Oops, an error
Loading. Please wait.

Suburban Starlets - Tides Tab

42 views 1 this week
no commentswrite comment
1 2 3 4 5
please rate
add to favorites
launch autoscroll
font size
0
reset
how to read this tab
guitar tuner
Tab Pro tools
  • play this tab
  • loop segment
  • change instrument
  • show fretboard
  • metronome
×
Best way to learn
"Suburban Starlets - Tides"
Autoscroll
slow
fast
+/-
esc
set tempo
stop
Contributor
Difficulty
intermediate
Suburban Starlets - Tides (ACOUSTIC)
2009

Verse 1:

e----------0---------------0-----------------|
b------3-----3---3-----3-----3---3-----------|
g--------0-----0---------0-----0-------------|
d----2---------------2-----------------------|
a--3---------------3-------------------------|
e--------------------------------------------|

e----------0---------------0-----------------|
b------3-----3---3-----3-----3---3-----------|
g--------0-----0---------0-----0-------------|
d----2---------------2-----------------------|
a--0---------------0-------------------------|
e--------------------------------------------|

e----------0---------------0-----------------|
b------3-----3---3-----3-----3---3-----------|
g--------0-----0---------0-----0-------------|
d----2---------------2-----------------------|
a--3---------------3-------------------------|
e--------------------------------------------|

e----------0---------------0-----------------|
b------3-----3---3-----3-----3---3-----------|
g--------0-----0---------0-----0-------------|
d----2---------------2-----------------------|
a--0---------------0-------------------------|
e--------------------------------------------|

e----------0---------------0-----------------|
b------3-----3---3-----3-----3---3-----------|
g--------0-----0---------0-----0-------------|
d----2---------------2-----------------------|
a--3---------------3-------------------------|
e--------------------------------------------|

e----------0---------0~--------|
b------3-----3---3---3~--------|
g--------0-----0-----0~--------|
d----2---------------2~--------|
a--0-----------------3~--------|
e------------------------------|

Chorus:
  v v^  v v^ v v^ v v^ v v^ v
e------------------------------|
b-3-33--3-33-3-33-3-33-1-11-1--|
g-2-22--0-00-0-00-0-00-0-00-0--|
d-0-00-------------------------|
a-0-00--2-22-2-23-3-33-3-33-3--|
e-------0-00-0-00-0-00-0-00-0--|

  v v^  v v^ v v^ v v^ v v^ v
e------------------------------|
b-3-33--3-33-3-33-3-33-1-11-1--|
g-2-22--0-00-0-00-0-00-0-00-0--|
d-0-00-------------------------|
a-0-00--2-22-2-23-3-33-3-33-3--|
e-------0-00-0-00-0-00-0-00-0--|

  v v^  v v^ v v^ v v^ v v^ v
e------------------------------|
b-1-11--1-11-1-11-1-11-3-33-3--|
g-2-22--0-00-0-00-0-00-0-00-0--|
d-0-00-------------------------|
a-0-00--2-22-2-23-3-33-3-33-3--|
e-------0-00-0-00-0-00-0-00-0--|

  v v^  v v^ v v^ v v^ v v^ v
e------------------------------|
b-3-33--3-33-3-33-3-33-1-11-1--|
g-2-22--0-00-0-00-0-00-0-00-0--|
d-0-00-------------------------|
a-0-00--2-22-2-23-3-33-3-33-3--|
e-------0-00-0-00-0-00-0-00-0--|


Verse 2 (part 1):

e---------3---------------3---------------|
b-----3-----3---3-----3-----3---3---------|
g-------0-----0---------0-----0-----------|
d-----------------------------------------|
a---2---------------2---------------------|
e-3---------------3-----------------------|

e---------3---------------3---------------|
b-----3-----3---3-----3-----3---3---------|
g-------0-----0---------0-----0-----------|
d-----------------------------------------|
a---2---------------2---------------------|
e-0---------------0-----------------------|

e---------3---------------3---------------|
b-----3-----3---3-----3-----3---3---------|
g-------0-----0---------0-----0-----------|
d-----------------------------------------|
a---2---------------2---------------------|
e-3---------------3-----------------------|

e---------3---------3~------------|
b-----3-----3---3---3~------------|
g-------0-----0-----0~------------|
d-------------------0~------------|
a---2---------------2~------------|
e-0-----------------3~------------|

Verse 2(part 2):

e-333333333333333--------------------------|
b-333333333333333-111111111111111----------|
g-000000000000000-000000000000000----------|     X3
d-000000000000000-222222222222222----------|
a-222222222222222-333333333333333----------|
e-333333333333333--------------------------|
   xxx xx xxxx x   xxx xx xxxx x

e-333333333333333-------------------|
b-333333333333333-11111111~---------|
g-000000000000000-00000000~---------|     x1
d-000000000000000-22222222~---------|
a-222222222222222-33333333~---------|
e-333333333333333-------------------|
   xxx xx xxxx x   xxx xx

Chorus:
  v v^  v v^ v v^ v v^ v v^ v
e------------------------------|
b-3-33--3-33-3-33-3-33-1-11-1--|
g-2-22--0-00-0-00-0-00-0-00-0--|
d-0-00-------------------------|
a-0-00--2-22-2-23-3-33-3-33-3--|
e-------0-00-0-00-0-00-0-00-0--|


  v v^  v v^ v v^ v v^ v v^ v
e------------------------------|
b-3-33--3-33-3-33-3-33-1-11-1--|
g-2-22--0-00-0-00-0-00-0-00-0--|
d-0-00-------------------------|
a-0-00--2-22-2-23-3-33-3-33-3--|
e-------0-00-0-00-0-00-0-00-0--|

  v v^  v v^ v v^ v v^ v v^ v
e------------------------------|
b-1-11--1-11-1-11-1-11-3-33-3--|
g-2-22--0-00-0-00-0-00-0-00-0--|
d-0-00-------------------------|
a-0-00--2-22-2-23-3-33-3-33-3--|
e-------0-00-0-00-0-00-0-00-0--|

  v v^  v v^ v v^ v v^ v v^ v
e------------------------------|
b-3-33--3-33-3-33-3-33-1-11-1--|
g-2-22--0-00-0-00-0-00-0-00-0--|
d-0-00-------------------------|
a-0-00--2-22-2-23-3-33-3-33-3--|
e-------0-00-0-00-0-00-0-00-0--|

  v v^  v v^ v v^ v v^ v v^ v
e------------------------------|
b-1-11--1-11-1-11-1-11-3-33-3--|
g-2-22--0-00-0-00-0-00-0-00-0--|
d-0-00-------------------------|
a-0-00--2-22-2-23-3-33-3-33-3--|
e-------0-00-0-00-0-00-0-00-0--|

  v v^  v v^ v v^ v v^ v v^ v
e--------------------------|
b-3-33--3-33-3-33-3-33-3~--|
g-2-22--0-00-0-00-0-00-0~--|
d-0-00---------------------|
a-0-00--2-22-2-23-3-33-3~--|
e-------0-00-0-00-0-00-0~--|
comments
We did not receive enough feedback on this tab! Please rate:
print report bad tab
1 2 3 4 5
I want to post or [tab]
guest
You may want to rate the tab now too:
select rating
Please do not post tabs as comments. Select "correction" instead!