Oops, an error
Loading. Please wait.

Suga Shikao - 19Sai Bass Tab

2,134 views 1 this week
no commentswrite comment
1 2 3 4 5
3 more votes to show rating
add to favorites
launch autoscroll
font size
0
reset
guitar tuner
Autoscroll
slow
fast
+/-
esc
set tempo
stop
Help us to improve Ultimate-Guitar.com Take our survey!
×
Author
Difficulty
novice
Pretty fun little bass line. I couldn't find this tab anywhere online so I figured I 
take a stab at it. It's my first tab although I'm confident that it's right.


                        19sai (Bass Tab)
Intro: (x1)

G|--------|--------|--------|--------|--------|--------|--------|
D|--------|--------|--------|--------|--------|--------|--------|
A|--------|--------|--------|--------|--------|--------|--------|
E|3---5---|0-------|3---5---|00-00---|--------|--------|--------|

Chorus: (x4) (4th time through stop after *)

G|--------|--------|------*-|--------|--------|--------|--------|
D|--------|--------|------*-|--------|--------|--------|--------|
A|--3h5-3-|5------5|-55---*-|-3h5----|--------|--------|--------|
E|0-------|--3--5--|----5-*3|--------|--------|--------|--------|

Verse: (x3) (3rd time through go to Pre-Chorus after *)

G|--------|--------|--------*|--------|--------|--------|--------|
D|--------|--------|---5---5*|--------|--------|--5---5-|--------|
A|-7/0----|--------|--------*|-7/0----|--------|--------|--------|
E|0-----0-|3-3/5-0-|X3---3--*|0-----0-|3-5--0-X|3---3---|--------|

Pre-Chorus: (x1)

G|--------|--------|--------|--------|--------|--------|--------|
D|--------|--------|--------|--------|--------|--------|--------|
A|--------|--------|--------|--------|--------|--------|--------|
E|3---5---|0-------|3---5---|00-00-00|--------|--------|--------|

Bridge: (x1) (With some kind of synth effect)

G|--------|--------|--------|--------|--------|--------|--------|
D|--------|--------|--------|--------|--------|--------|--------|
A|--------|--------|--------|--------|--------|--------|--------|
E|3---5/12|0-------|3---5/12|0--00-00|--------|--------|--------|

~12 Measure rest
~Intro
~Chorus
~Verse
~Pre-Chorus
~Chorus
~Solo ---> Play chorus accept at the (*) go to the bridge
~Chorus ---> Till end, don't use (*)

http://www.suga-shikao.net/
Suggest correction
Give kudos to tab author, rate the tab!
1 2 3 4 5
comments
print report bad tab
guest
You may want to rate the tab now too:
select rating
Wanna post a correction for this tab? Suggest correction