Oops, an error
Loading. Please wait.

Sugar Glyder - Flowers Bass Tab

166 views 1 this week
no commentswrite comment
1 2 3 4 5
please rate
add to favorites
launch autoscroll
font size
0
reset
guitar tuner
Autoscroll
slow
fast
+/-
esc
set tempo
stop
Help us to improve Ultimate-Guitar.com Take our survey!
×
Author
Difficulty
intermediate
Flowers
Sugar Glyder
http://www.myspace.com/sugarglyder
Standard Tuning

This is one of my favorite songs from Sugar Glyder.  I tabbed it from a live version 
the bass stood out more.  I believe she sped up some of the parts but for the most part I 
its very accurate.
Enjoy!

0:13-1:46
G---------------------14~---------------|----------------14~--16-----------|
D---------------16--------16~-----------|-----------16------------14-------|
A----14--14-----------------------------|-14--14---------------------------|
E---------------------------------------|----------------------------------|


G---------------------14~---------------|----------------------------------|
D---------------16--------16~-----------|----------------------------------|
A----14--14-----------------------------|----14/12-----12/10----10/9-------|
E---------------------------------------|----------------------------------|

1:48-1:59
G-------------------------------------------------------------|
D-------------------------------------------------------------|
A-------------------------------------------------------------|
E---3-3-3-3--3~-------5-5-5-5--5~-----------------------------| X2


2:00-2:20
G----------------------------------------------------------------------|
D----------9-----9-----9-----9--------------7-----7-----7-----7--------|
A----------------------------------------------------------------------|
E----7-7-7---7-7---7-7---7-7---7-7----5-5-5---5-5---5-5---5-5---5-5----|

Play the above riff three times

2:21-2:25
G------------------------------------------------------------|
D------------------------------------------------------------|
A------------------------------------------------------------|
E----2--2--2~------------3--3--3~----------------------------|

Now pause until 2:40 while the lead guitar plays a lick

2:41-3:03
G---------------------14~---------------|----------------14~--16-----------|
D---------------16--------16~-----------|-----------16------------14-------|
A----14--14-----------------------------|-14--14---------------------------|
E---------------------------------------|----------------------------------|


G---------------------14~---------------|----------------------------------|
D---------------16--------16~-----------|----------------------------------|
A----14--14-----------------------------|----14/12-----12/10----10/9-------|
E---------------------------------------|----------------------------------|

Pause for a few seconds for the group chant

3:07-3:19
G-------------------------------------------------------------|
D-------------------------------------------------------------|
A-------------------------------------------------------------|
E---3-3-3-3--3~-------5-5-5-5--5~-----------------------------|  X2

3:20-3:39
G----------------------------------------------------------------------|
D----------9-----9-----9-----9--------------7-----7-----7-----7--------|
A----------------------------------------------------------------------|
E----7-7-7---7-7---7-7---7-7---7-7----5-5-5---5-5---5-5---5-5---5-5----|
Play above riff three times

3:40-3:46
G-----------------------------------------------------------------|
D-----------------------------------------------------------------|
A-----------------------------------------------------------------|
E----2--2--2~------------3--3--3~---------------------------------|

Outro contains no bass
Suggest correction new What's this?
You can suggest a correction to this tab. Community and Mods will review your correction and vote to approve or reject it.
comments
We did not receive enough feedback on this tab! Please rate:
print report bad tab
1 2 3 4 5
guest
You may want to rate the tab now too:
select rating
Please do not post tabs as comments. Select "correction" instead!