Oops, an error
Loading. Please wait.

Sugartooth - Leave My Soul To Rest Tab

533 views 3 this week
no commentswrite comment
1 2 3 4 5
please rate
add to favorites
launch autoscroll
font size
0
reset
how to read this tab
guitar tuner
Tab Pro tools
  • play this tab
  • loop segment
  • change instrument
  • show fretboard
  • metronome
×
Best way to learn
"Sugartooth - Leave My Soul To Rest"
Autoscroll
slow
fast
+/-
esc
set tempo
stop
Contributor
Difficulty
intermediate
-------------------------------------------------------------------------------
                             Leave My Soul to Rest - Sugartooth
-------------------------------------------------------------------------------
Tabbed by:A.Spencer
Email:A.Spencer2@gmail.com

| /  slide up
| \  slide down
| h  hammer-on
| p  pull-off
| ~  vibrato
| +  harmonic
| x  Mute note
===============================================================================

Tuning:(E A D G B E)


e|---------------------------------|
B|---------------------------------|
G|---------------------------------|x7
D|---------------------------------|
A|---------10-----10-----10p0-9----|
E|-0-0-0-0----0-0----0-0-----------|


e|---------------------------------|
B|---------------------------------|
G|---------------------------------|
D|---------------------------------|
A|---------10---------5-7---5-7----|
E|-0-0-0-0----0-0-0-0-----0--------|


e|------------------------------------------------|
B|------------------------------------------------|
G|------------------------------------------------|
D|---11--5-7-7-------5-----11--5-7-7--------------|x4
A|-9--9--------5-7-7-----9--9--------5-7-7-5h7----|
E|-7---------------------7------------------------|


(Trem picking)

e|----------|
B|----------|
G|----------|
D|-9-/11----|
A|----------|
E|----------|


e|------------------------------------------------|
B|------------------------------------------------|
G|------------------------------------------------|
D|---11--5-7-7-------5-----11--5-7-7--------------|
A|-9--9--------5-7-7-----9--9--------5-7-7-5h7----|
E|-7---------------------7------------------------|


(Trem picking)

e|----------|
B|----------|
G|----------|
D|-9-/11----|
A|----------|
E|----------|

e|------------------------------------------------|
B|------------------------------------------------|
G|------------------------------------------------|
D|---11--5-7-7-------5-----11--5-7-7--------------|
A|-9--9--------5-7-7-----9--9--------5-7-7-5h7----|
E|-7---------------------7------------------------|

e|------------------------------------------------|
B|------------------------------------------------|
G|------------------------------------------------|
D|---11--5-7-7-------5-----11--5-7-7--------------|x2
A|-9--9--------5-7-7-----9--9--------5-7-7-5h7----|
E|-7---------------------7------------------------|

(Trem picking)

e|----------|
B|----------|
G|----------|
D|-9-/11----|
A|----------|
E|----------|


e|------------------------------------------------|
B|------------------------------------------------|
G|------------------------------------------------|
D|---11--5-7-7-------5-----11--5-7-7--------------|
A|-9--9--------5-7-7-----9--9--------5-7-7-5h7----|
E|-7---------------------7------------------------|


e|------------------------------------------------|
B|------------------------------------------------|
G|------------------------------------------------|
D|---11--5-7-7-------5-----11--5-7-7--------------|x2
A|-9--9--------5-7-7-----9--9--------5-7-7-5h7----|
E|-7---------------------7------------------------|

e|-----------------------|
B|-----------------------|
G|-----------------------|
D|-----------------------|
A|-9----9----9----7------|
E|-7----7----7----5------|


e|---------------------------------|
B|---------------------------------|
G|---------------------------------|Plays along with solo
D|---------------------------------|
A|---------10-----10-----10p0-9----|
E|-0-0-0-0----0-0----0-0-----------|


SOLO: Im am horrible at solos, so I not the last half is messed up, but hopefully 
out there with more exp. can tell me how to fix it.

e|-----------------------------------------|
B|-----------------------------------------|
G|-----------------------------------------|
D|-14--17-17-19----------------------------|
A|--------------17--17-/19-----------------|
E|-------------------------17-17-/19-12----|

                                       h
e|--------------------------------------------------|
B|--------------------------------------------------|
G|----------------------------------------===-------|
D|----17--19-19-17--19-19-17--19-19-17-19-17-19^17--|
A|--------------------------------------------------|
E|--------------------------------------------------|

                                      h
e|------------------------------------------------|
B|--15--17 17-15--17 17-15--17 17-15--17-15-17^15-|
G|------------------------------------------------|
D|------------------------------------------------|
A|------------------------------------------------|
E|------------------------------------------------|

e|---------------------------------15--15-------|
B|--15--17 17-15--17 17-15--17 17-17- 17-17-----|
G|---------------------------------------16-----|
D|----------------------------------------------|
A|----------------------------------------------|
E|----------------------------------------------|


e|-----------------------|
B|-----------------------|
G|-----------------------|
D|-----------------------|
A|-9----9----9----7------|
E|-7----7----7----5------|

e|---------------------------|
B|---12-15-12----12-15-12----|
G|-9-----------9-------------|
D|---------------------------|x5
A|---------------------------|
E|---------------------------|


e|---------------------------------|
B|---------------------------------|
G|---------------------------------|
D|---------------------------------|x3
A|---------10-----10-----10p0-9----|
E|-0-0-0-0----0-0----0-0-----------|

e|-----------|
B|-----------|
G|-----------|
D|---7/9-----| Repeat till song ends.
A|---5/7-----|
E|-0---------|
comments
We did not receive enough feedback on this tab! Please rate:
print report bad tab
1 2 3 4 5
I want to post or [tab]
guest
You may want to rate the tab now too:
select rating
Please do not post tabs as comments. Select "correction" instead!