Oops, an error
Loading. Please wait.

Sulaiman Azimi - Summer Girl Tab

2,680 views 3 this week
no commentswrite comment
1 2 3 4 5
excellent!
x 4
add to favorites
launch autoscroll
font size
0
reset
how to read this tab
guitar tuner
Autoscroll
slow
fast
+/-
esc
set tempo
stop
Help us to improve Ultimate-Guitar.com Take our survey!
×
Contributor
Difficulty
intermediate
This is Summer Girl by Sulaiman Azimi from the Maggie Stiefvater's Saga Shiver.. Made by 
me.. I don't how to specify the measures so watch my video on Youtube for any 
question.. here is the link.. http://www.youtube.com/watch?v=Hsbc2k6SuyE

Intro & Verse..

e //-----------------------------------------------------------------------------|
B //----8--8---------8---------8---------8----8--8--------8-------6---6-------6--|
G //----0-------0----------0---------0--------6-------6--------------------0-----|
D //---10---------10---------9---------9------8---------8-----------7--------7---|
A //---10------------------------------------------------------------------------|
E //-----------------------------------------------------------------------------|

-----3---------/1--1-------------0----//
--5-------5---5/3-------3---3----1----//
--0---------0-----0-------0------0----// x4
--5------------/3-3--------------2----//
---------------------------------3----//
---------------------------------3----//

Pre-Chorus..

     Oh, it's the summer when she smile..

e //--0-----------0-----------0-----4-----0--//
B //--1-----------1-----------1-----3-----1--//
G //--2-----------0-----------0-----4-----2--//
D //--3-----------2-----------0-----0-----2--//
A //--3-----------3-----------2-----------0--//
E //--------------3-----------3-----------0--//

Chorus..

     She holds the heat..

e //--0-----0-----4-----0--0--0-----------3-----3--//
B //--1-----1-----3-----1--1--1-----------1-----3--//
G //--2-----0-----4-----2--0--2-----------3-----0--//
D //--3-----2-----0-----2--0--3-----------0-----0--//
A //--3-----3-----------0--2--3-----------------2--//
E //--------3-----------0--3--------------------3--//

2nd Chorus..

e //--0-----0-----4-----0--0--0-----------3-----------0-----------3-----3--//
B //--1-----1-----3-----1--1--1-----------1-----------1-----------1-----3--//
G //--2-----0-----4-----2--0--2-----------3-----------2-----------3-----0--//
D //--3-----2-----0-----2--0--3-----------0-----------3-----------0-----0--//
A //--3-----3-----------0--2--3-----------------------3-----------------2--//
E //--------3-----------0--3--------------------------------------------3--//

Wolf Part..

     Awhoo..

e //--0-----0-----0-----3-----3-----1-----0--//
B //--1-----0-----1-----3-----1-----1-----1--//
G //--0-----0-----2-----0-----3-----2-----0--// x2
D //--2-----2-----2-----0-----0-----3-----2--//
A //--3-----2-----0-----2-----------3-----3--//
E //--3-----0-----0-----3-----------1-----3--//

Bridge..

     I fell for her..

e //--0-----0-----0-----3-----3-----1-----0---|
B //--1-----0-----1-----3-----1-----1-----1---|
G //--0-----0-----2-----0-----3-----2-----0---|
D //--2-----2-----2-----0-----0-----3-----2---|
A //--3-----2-----0-----2-----------3-----3---|
E //--3-----0-----0-----3-----------1-----3---|

  I'd love to spend..

--0-----0-----0-----3-----3-----1-----0--//
--1-----3-----1-----3-----1-----1-----1--//
--0-----1-----2-----0-----3-----2-----0--//
--2-----2-----2-----0-----0-----3-----2--//
--3-----2-----0-----2-----------3-----3--//
--3-----0-----0-----3-----------1-----3--//

2nd Wolf Part..

e //--0-----0-----0-----3-----3-----1-----0---|
B //--1-----0-----1-----3-----1-----1-----1---|
G //--0-----0-----2-----0-----3-----2-----0---| x2
D //--2-----2-----2-----0-----0-----3-----2---|
A //--3-----2-----0-----2-----------3-----3---|
E //--3-----0-----0-----3-----------1-----3---|

  Oh Awhoo..

--3-----1-----0--//
--1-----1-----1--//
--3-----2-----0--//
--0-----3-----2--//
--------3-----3--//
--------1-----3--//

Outro..

     Oh, is this fragile love..


e //--0-----0-----0-----3-----3-----1-----0--//
B //--1-----3-----1-----3-----1-----1-----1--//
G //--0-----1-----2-----0-----3-----2-----0--//
D //--2-----2-----2-----0-----0-----3-----2--//
A //--3-----2-----0-----2-----------3-----3--//
E //--3-----0-----0-----3-----------1-----3--//

Enjoy..

-Gabriel Auditore-
Suggest correction new What's this?
You can suggest a correction to this tab. Community and Mods will review your correction and vote to approve or reject it.
comments
print report bad tab
guest
You may want to rate the tab now too:
select rating
Please do not post tabs as comments. Select "correction" instead!