Oops, an error
Loading. Please wait.

Summer Soundtrack - Butterfly Bass Tab

95 views 3 this week
1 commentread comment
1 2 3 4 5
please rate
add to favorites
launch autoscroll
font size
0
reset
guitar tuner
Autoscroll
slow
fast
+/-
esc
set tempo
stop
Help us to improve Ultimate-Guitar.com Take our survey!
×
Author
Difficulty
intermediate
       BUTTERFLY by SUMMER SOUNDTRACK 
       5-string bass 
       original tab by Travis Bazanele


  |intro                               |(x2)                       
G||-----------------------------------||----------------------------------||
D||-----------------------------------||*----66--------------------------*||
A||-----------------------------------||---77--7---6---7---7---6----------||
E||00000000000000000///////1212121212\||*00-----7-7-799-999-977-757545424*||
B||-----------------------------------||----------------------------------||


G|-----------------------9--8-6--911-1414141313----------------------------|
D|-------------7--6-/9---------9-------------------------------------------|
A|--7-------7-----------0--------------------------------------------------|
E|99-9-7-5-----------------------------------------------------------------|
B|-------------------------------------------------------------------------|

  |verse x2                                           
G|-------------------------------------------------------------------------|
D|------66------66------66------66----------------------66--77--66---------|
A|----77--77--77--77--77--77--77--77--779977--779977--77--77--77--77-------|
E|--00------00------99------99------77------77------55---------------------|
B|-------------------------------------------------------------------------|

 |prechorus 1                   
G|-------------------------------------------------------------------------|
D|-------------------------------------------------------------------------|
A|--9---9---9----11----------h(12)-----------------------------------------|
E|77-777-777-77/9--95555555/-----------------------------------------------|
B|-------------------------------------------------------------------------|

 |chorus
G|-------------------------------------------------------------------------|
D|-------------------------------------------------------------------------|
A|----------------------------------------------------000222444666779------|
E|0-0-000-7-7-777-9-99-910-1010-10-0002222222222222024---------------------|
B|-------------------------------------------------------------------------|

 |(chorus)
G|-------------------------------------------------------------------------|
D|----------------------------------------42---2---------------------------|
A|-------------------------------------------4--420002224446667799---------|
E|0-0-000----------------------00022222222---------------------------------|
B|--------0-0-000-2-22-03--33-3--------------------------------------------|

 |breakdown!                        |verse  |             
G|----------------------------------|-------|
D|----------------------------------|--*-/--|
A|----------------------------------|---/---|
E|00-00-00-000055500-00-00-00/\-----|--/-*--|
B|----------------------------------|-------|

 |prechorus two                     |chorus |
G|-------------------------898------|-------|
D|----------------------------97-6--|--*-/--|
A|--9---9---9---11------------------|---/---|
E|77-777-777-779--955555555---------|--/-*--|
B|----------------------------------|-------|

 |postchorus shenanigans
G|-------------------------------------------------------------------------|
D|-------------------------------------------------------7-6---------------|
A|9-9-9-9997---7-----------6667679------7-7-----------47-----77999---------|
E|-----------9--97555777999-------9-9-9-----7-7-775-5----------------------|
B|-------------------------------------------------------------------------|


G|-------------------------------------------------------------------------|
D|-------------------------------------------------------------------------|
A|9-9-9-9997---7-----------6667799-----------------------------------------|
E|-----------9--97555777999------------------------------------------------|
B|-------------------------------------------------------------------------|

 |BREAKDOWN!!
G|-------------------------------------------------------------------------|
D|----------------------------h(7)(7)(7)-----------------------------------|
A|-------------------------------------------------------------------------| 
E|00-00-00-000055500-00-00-000----------00-00-00-000055500-00-00-00-/\-----|
B|-------------------------------------------------------------------------|

 |chorus |cry-y-y-y                    |chorus |
G|-------|-----------------------------|-------|
D|--*-/--|-----------------------------|--*-/--|
A|---/---|99-1111-1212-1212-14141414---|---/---|
E|--/-*--|-----------------------------|--/-*--|
B|-------|-----------------------------|-------|

 |outro       
G|------------------------------------------------------------------------||
D|----66------------------------------66----------------------------------||
A|--77--7---6---7---7---6-----------77--7---6---7---7---6---------2-------||
E|00-----7-7-799-999-977-75754542400-----7-7-799-999-977-7575454240-------||
B|------------------------------------------------------------------------||


h(x)= harmonic
  / = slide up
  \ = slide down


Listen at:  http://summersoundtrackmusic.com/
            http://www.facebook.com/summersoundtrackmusic


more coming soon :]


Suggest correction
What's this?
You can suggest a correction to this tab. Community and Mods will review your correction and vote to approve or reject it.
comments
We did not receive enough feedback on this tab! Please rate:
print report bad tab
1 2 3 4 5
1 comment total.
0 reply
spazbazbadbot 26 wrote on August 17 2011, 03:49 pm

this song is totally doable with a 4-string as well, just repeat the first line of the chorus twice and disregard the second line. shazam.

guest
You may want to rate the tab now too:
select rating
Please do not post tabs as comments. Select "correction" instead!