Oops, an error
Loading. Please wait.

Sun Set East - All I Wanted Bass Tab

51 views 1 this week
no commentswrite comment
1 2 3 4 5
3 more votes to show rating
add to favorites
launch autoscroll
font size
0
reset
guitar tuner
Autoscroll
slow
fast
+/-
esc
set tempo
stop
Help us to improve Ultimate-Guitar.com Take our survey!
×
Author
Difficulty
Tuning
novice
D A D G B E
Intro

G|---------------------------------------------------------------------------|
D|---------------------------------------------------------------------------|
A|--2--2--2--2----2--2--2--2--2--2--------------------------------2--2--2--2-|
D|----------------------------------2--2--2--2---2--2--2--2--2--2------------|

G|-------------------------------------|
D|-------------------------------------|
A|--2--2--2--2--2--2-------------------|
D|--------------------2--2--2--2----4~-|

Verse I

G|-------------------------------------------|
D|-------------------------------------------|
A|--2(x16)---------2(x16)----------/44444444-|
D|---------2(x16)---------22222222-----------|

Chorus

G|------------------------------------------|
D|------------------------------------------|
A|2(x16)----------------------------44~-----|
D|------6(x16)--4(x16)--2222222244444-------|

G|-------------------------------------------|
D|-------------------------------------------|
A|2(x16)-------------------------------------|
D|------6(x16)--4(x16)--222222224\-----------|

Turnaround

G|-----------------------------------------|
D|-----------------------------------------|
A|2222222222222111-------------------------|
D|-----------------------------------------|

Verse II

G|-------------------------------------------------------|
D|-------------------------------------------------------|
A|-222222222222224~---------222222222222224~-------------|
D|-----------------2(x16)---------------------2(x16)-----|

G|---------------------------------------------------------------------------|
D|---------------------------------------------------------------------------|
A|--2--2--2--2----2--2--2--2--2--2--------------------------------2--2--2--2-|
D|----------------------------------2--2--2--2---2--2--2--2--2--2------------|

G|---------------------------------------------------|
D|---------------------------------------------------|
A|--2--2--2--2--2--2---------------------------------|
D|--------------------2--2--2--2----2--2--2--2--2--2-|

Prechorus

G|---------------------------------------------------|
D|---------------------------------------------------|
A|---------------------------/999999-----------------|
D|-66666666222222224~---------------9/---------------|

Chorus

G|-------------------------------------------|
D|-------------------------------------------|
A|2(x16)----------------------------44~------|
D|------6(x16)--4(x16)--2222222244444--------|

G|-------------------------------------------|
D|-------------------------------------------|
A|2(x16)-------------------------------------|
D|------6(x16)--4(x16)--2222222244444444-----|

Bridge

G|------------------------------------------------------------------|
D|------------------------------------------------------------------|
A|------------------------------------------------------------------|
D|-6-6-66666-6-66664-4-44444-4-44442-2-2222-22-22224444444455555555-|

G|----------------------------------------------------------------------|
D|----------------------------------------------------------------------|
A|---------------------------------2-2-2222-22-2222---------------------|
D|-6-6-66666-6-66664-4-44444-4-4444----------------44444444555555555555-|

Down Chorus

G|---------------------------------------------------------------------------|
D|---------------------------------------------------------------------------|
A|-9/-2--2--2--2----2--2--2--2--2--2-----------------------------------------|
D|-----------------------------------6--6--6--6---6--6--6--6--6--6-----------|

G|---------------------------------------------|
D|---------------------------------------------|
A|---------------------------------------------|
D|-4--4--4--4----4--4--4--4--4--4--2--2--2--2--|


Chorus

G|------------------------------------------|
D|------------------------------------------|
A|2(x16)----------------------------44~-----|
D|------6(x16)--4(x16)--2222222244444-------|

G|-------------------------------------------|
D|-------------------------------------------|
A|2(x16)-------------------------------------|
D|------6(x16)--4(x16)--222222224\-----------|
Suggest correction
Give kudos to tab author, rate the tab!
1 2 3 4 5
comments
print report bad tab
guest
You may want to rate the tab now too:
select rating
Wanna post a correction for this tab? Suggest correction