Oops, an error
Loading. Please wait.

Sun Set East - In Retrospect Bass Tab

79 views 1 this week
no commentswrite comment
1 2 3 4 5
please rate
add to favorites
launch autoscroll
font size
0
reset
guitar tuner
Autoscroll
slow
fast
+/-
esc
set tempo
stop
Help us to improve Ultimate-Guitar.com Take our survey!
×
Author
Difficulty
Tuning
novice
D A D G B E
Intro
o
G|-----------------------------------------------|
D|-----------------------------------------------|
A|2(x16)-----------------------------------------|
D|------2(x16)-/6(x16)--222222222222/11-11-11-11-|

G|-------------------------------------------|
D|-------------------------------------------|
A|2(x16)-------------------/4(x8)------------|
D|------2(x16)-/6(x16)--4(x8)----------------|

Verse I

G|----------------------------------------|
D|----------------------------------------|
A|2~--------------------------------------|
D|---22244466644422442~--4446662224446644-|

G|---------------------------------------|
D|---------------------------------------|
A|2~-------------------------------------|
D|---22244466644422442~--44466622--4--4--|


Prechorus

G|---------------------------------------|
D|---------------------------------------|
A|---------------------------------------|
D|-6--6--6--6--2-2-2-222-222-222---------|


G|---------------------------------------|
D|---------------------------------------|
A|---------------------------------------|
D|-6--6--6--6--4-4-4-444-444-------------|


Chorus

G|--------------------------------------------|
D|---------------------------------4----------|
A|-2(x16)--------------------------4-4--------|
D|------ 4(x16)-6(x16)-2222222222222----------|

G|--------------------------------------------|
D|--------------------------------------------|
A|-2(x16)-------------------------------------|
D|------ 4(x16)-6(x16)-22-------------2-4-----|

Turnaround

G|-------------------------------------------|
D|-------------------------------------------|
A|2(x16)-------------------/4(x8)------------|
D|------2(x16)-/6(x16)--4(x8)----------------|


Verse II

G|----------------------------------------|
D|----------------------------------------|
A|2~--------------------------------------|
D|---22244466644422442~--4446662224446644-|

G|---------------------------------------|
D|---------------------------------------|
A|2~-------------------------------------|
D|---22244466644422442~--44466622--4--4--|


Prechorus

G|---------------------------------------|
D|---------------------------------------|
A|---------------------------------------|
D|-6--6--6--6--2-2-2-222-222-222---------|


G|-----------------------------------------|
D|-----------------------------------------|
A|-----------------------------------------|
D|-6--6--6--6--4-4-4-444/11-11-11-11-11/---|


Chorus

G|--------------------------------------------|
D|---------------------------------4----------|
A|-2(x16)--------------------------4-4--------|
D|------ 4(x16)-6(x16)-2222222222222----------|

G|--------------------------------------------|
D|--------------------------------------------|
A|-2(x16)-------------------------------------|
D|------ 4(x16)-6(x16)-22-------------6-4-----|

Bridge

G|-------------------------------------------|
D|-------------------------------------------|
A|-------------------------------------------|
D|-22----22244----44466----66699----99-9-9-9-|

G|----------------------------------------------|
D|----------------------------------------------|
A|----------------------------------------------|
D|-2(x16)-4(x16)-6(x16)-9-99999999999999--------|

Bridge II

G|------------------------------------------|
D|------------------------------------------|
A|-22---------------------------------------|
D|-----22-------4~--------------------------|

Chorus

G|--------------------------------------------|
D|---------------------------------4----------|
A|-2(x16)--------------------------4-4--------|
D|------ 4(x16)-6(x16)-2222222222222----------|

G|-------------------------------------------|
D|-------------------------------------------|
A|-2(x16)------------------------------------|
D|------ 4(x16)-6(x16)-2222222222222-2-2-----|

Chorus

G|-----------------------------------------|
D|-----------------------------------------|
A|-2~--------------------------------------|
D|------/7\ 4(x8)-6(x8)-22-----------------|

End

G|-----------------------------------------|
D|-----------------------------------------|
A|-2~--------------------------------------|
D|------ ----------------------------------|
Suggest correction
Give kudos to tab author, rate the tab!
1 2 3 4 5
comments
print report bad tab
guest
You may want to rate the tab now too:
select rating
Please do not post tabs as comments. Select "correction" instead!