Oops, an error
Loading. Please wait.

Sungha Jung - Starseeker Tab

version 1
version 1

Whole song

Interactive

3,676 views 1 this week
no commentswrite comment
1 2 3 4 5
please rate
add to favorites
launch autoscroll
font size
0
reset
how to read this tab
guitar tuner
Tab Pro tools
  • play this tab
  • loop segment
  • change instrument
  • show fretboard
  • metronome
×
Best way to learn
"Sungha Jung - Starseeker"
Autoscroll
slow
fast
+/-
esc
set tempo
stop
Contributor
---------------------------------------------------------------------
                             STARSEEKER - Sungha Jung
---------------------------------------------------------------------

Tabbed by: Karpassieni
Tuning: DADF#AD
No capo
There is not tabs to the full song. Maybe I'll do them someday.

    ^                ^               ^               ^
D |-0-------------|-<12>----------|-<7>-----------|-<5>-----------|
A |-0-------------|-<12>----------|-<7>-----------|-<5>-----------|
F#|-0-------------|-<12>----------|-<7>-----------|-<5>-----------|
D |---------------|---------------|---------------|---------------|
A |---------------|---------------|---------------|---------------|
D |-0-------------|---------------|---------------|---------------|

                      ^
  |------------------<7>------------------------------------------|
  |-<7>-----<7>------<7>--------9--------9--------9-----9---------|
  |------------------<7>-----------0--------0--------0-----0------|
  |-----<7>-----<7>-------------------0--------0--------------0---|
  |---------------------------------------------------------------|
  |-----------------------------0-----------------------0---------|

  |---------------------------------------------------------------|
  |-7--------7-----7----------------------------------------------|
  |----0--------0-----0-----8--------8-----7--------5-------------|
  |-------0--------------0-----0--------0-----5--------5-----7--5-|
  |-------------------------------0--------------5--------5-------|
  |----------------9--------9--------------5--------5-------------|

  |-------------------0-----------------------0-------------------| 
  |---------------------------------------------------------------|
  |-----------------0-----0-----0-----------0-----0-----0---------|
  |--------7-----7-----------7-----------7-----------7------------|
  |-----------0-----------------------0---------------------------|
  |--------0-----------------------0------------------------------|

  |---------------------------------------------------------------|
  |-9--------9--------9-----9--------10--------12-----12----------|
  |----0--------0--------0-----0---------0---------0------9-----9-|
  |-------0--------0--------------0---------0----------------9----|
  |---------------------------------------------------------------|
  |-0-----------------------0------------------------ -9----------|


  |-9--------------------------9----------------------------------|
  |----12-----12-----------12-----12--10--9--10--------10---------|
  |--------9------------9---------------------------0------0------|
  |------------------9---------------------------0------------0---|
  |---------------------------------------------------------------|
  |---------------9---------------------------5-------------------|

                                                              ^
  |---------------------------------------------------------------|
  |-10------10--------9--------9-----9--------9--------9------7---|
  |-----0-------0--------0--------0-----8--------8--------8---7---|
  |----------------0--------0--------------7--------7---------7---|
  |----------------------------------0------------------------0---|
  |----------5----------------------------------------------------|


  |---------------------------------------------------------------|
  |----7--9--------9--------9-----9--------7--------7-----7-------|
  |-8--------0--------0--------0-----0--------0--------0-----0----|
  |-------------0--------0--------------0--------0--------------0-|
  |---------------------------------------------------------------|
  |-------------------------------0-----------------------9-------|

  |-----------------------------------------------------0---------|
  |---------------------------------------------------------------|
  |-8--------8-----7---------5-----------------------0-----0-----0|
  |----0--------0-----5---------5-----7--5--7-----7-----------7---|
  |-------0--------------5---------5-----------0------------------|
  |-9--------------5---------5--------------0---------------------|


  |---------------0-----------------------------------------------|
  |----------------------------9--------9--------9-----9----------|
  |------------0-----0-----0------0--------0--------0-----0-------|
  |---------7-----------7------------0--------0--------------0----|
  |------0--------------------------------------------------------|
  |---0------------------------0-----------------------0----------|


  |------------9h11--12--------12--------11-----11--------9-------|
  |-10-----12------------0---------0---------0------0--------0----|
  |-----0-------------------0---------0----------------0--------0-|
  |---------------------------------------------------------------|
  |---------------------------------------------------------------|
  |-------------------9--------------------------7----------------|


  |-9-----9------------9--------------------9--------7p5----------|
  |----0------0-----0-----0-----0--------0-----0------------------|
  |--------------0-----------0--------0-----------0---------------|
  |---------------------------------------------------------------|
  |---------------------------------------------------------------|
  |-------5------------------------5------------------------------|


  |-7-----------7--------------------7-----5\4--4--------4--------4----|
  |----0-----0-----0-----0--------0-----0----------2--------2--------2-|
  |-------0-----------0--------0----------------------2--------2-------|
  |--------------------------------------------------------------------|
  |--------------------------------------------------------------------|
  |-4-----------------------4-------------------2----------------------|

                                                        ^
  |-2--------2--------------0--0--------0--------0----------------|
  |----2--------2--------------5--5--------5--------5---4---------|
  |-------2--------2---/5------5-----5--------5---------5---------|
  |---------------------------------------------------------------|
  |----------------------------0------------------------0---------|
  |-2-------------------------------------------------------------|


comments
We did not receive enough feedback on this tab! Please rate:
print report bad tab
1 2 3 4 5
I want to post or [tab]
guest
You may want to rate the tab now too:
select rating
Please do not post tabs as comments. Select "correction" instead!