Oops, an error
Loading. Please wait.

Sungha Jung - When The Children Cry Tab

74,576 views 54 this week
1 commentread comment
1 2 3 4 5
excellent!
x 4
add to favorites
launch autoscroll
font size
0
reset
how to read this tab
guitar tuner
Autoscroll
slow
fast
+/-
esc
set tempo
stop
Help us to improve Ultimate-Guitar.com Take our survey!
×
"When the Children Cry" - White Lion
As performed by Sungha Jung
Transcribed by Andreas Pettersson

This is only the beginning of the song, and it still needs some adjustment.
When Sungha plays it he picks far more notes than I have put down here.
The reason I haven't written all of them is really because I'm not very good at transcribing
:), and I couldn't quite make out all of the notes he played. But anyway, this is the "basic" 
enjoy

http://www.youtube.com/watch?v=ppEYGLxT-NQ = Youtube film of Sungha Jung


|-0----------12~---------|10~----------8~----7~---|
|----0-----0-----0-----0-|----0-----0-----0-----0-|
|-------0-----------0----|-------0----------------|
|------------------------|------------------------|
|------------------------|------------------------|
|-0----------------------|------------------------|

|10~----------8~---------|-7~----------3-----2----|
|----0-----0-----0-----0-|----0-----0-----0-----0-|
|-------0-----------0----|-------0----------------|
|------------------------|------------------------|
|------------------------|------------------------|
|-0----------------------|-------------3-----2----|

|-0----------12~---------|10~----------8~----7~---|
|----0-----0-----0-----0-|----0-----0-----0-----0-|
|-------0-----------0----|-------0----------------|
|------------------------|------------------------|
|------------------------|------------------------|
|-0----------------------|------------------------|

|10~----------8~---------|-7~----------------0----|
|----0-----0-----0-----0-|----0--------0--3--0----|
|-------0-----------0----|-------0-----0--2-------|
|------------------------|----------0-------------|
|------------------------|----------------------2-|
|-0----------------------|-------------3--2--0----|

|------------------------|-2----------------------|
|----------0-----3-------|----3--------1----------|
|----0--------------4----|-------4--------0-----0-|
|-4-----4--------------4-|----------0--------2----|
|-------------2----------|-------------3----------|
|------------------------|------------------------|
 
|----------0-------------|------------------------|
|-1H3---------3-----3----|-------3-----3----------|
|-------0--------------0-|------------------------|
|------------------------|-0--------------------4-|
|------------------------|-------------------2----|
|----------------3-------|----3-----2-----0-------|

|----------------------2-|------------------------|
|-------------3----------|-3--------1--------3----|
|-0-----0--------4-------|----4--------0--------0-|
|----4--------------4----|-------0--------2-------|
|----------2-------------|----------3-------------|
|------------------------|------------------------|

|-0--2-----------2H-3P-2P|-0-----------5----------|
|-------3-----3----------|----3----------7--------|
|----------2-------------|-------2-7-------7------|
|----0-------------------|------------------------|
|------------------------|------------------------|
|------------------------|------------------------|

    (n.h)-let ring----|                    
|10----------------------|P
|10--(7)-----------------|A
|----(7)-----------------|U
|------------------------|S
|------------------------|E
|------------------------|!
   

                                                           
|------------------------|------------------------|
|-------0-----------0--1-|-3-----------3----------|
|----------0-----0-------|----0-----0-----0-----0-|
|-------------0----------|-------0-----------0----|
|------------------------|------------------------|
|-------3----------------|-3----------------------|

|-------------0-----2--3-|-0--2-------------------|
|------------------------|-------3----------------|
|-0----------------------|----------4-----0-------|
|----2-----2-------------|-------------0-----2----|
|-------2-----------0----|----2-----------------2-|
|-0----------------------|----------------0-------|

|----0-----0-------------|------------------------|
|-------------3-----0----|----------0-----0--1--0-|
|-------0--------0-----0-|------------------------|
|-2----------------------|-2-----4----------------|
|------------------------|----2-------------------|
|----0-----------------0-|----------3-----2-------|
                                                   
|-------------2H3P2P0----|------------------------|
|----------3-------------|-3----------------------|
|-2----2-----------------|----0-------------------|
|------------------------|------------------------|
|------------------------|------------------------|
|------------------------|------------------------|

|------------------------|------------------------|
|-------0-----------0--1-|-3-----------3----------|
|----------0-----0-------|----0-----0-----0-----0-|
|-------------0----------|-------0-----------0----|
|------------------------|------------------------|
|-------3----------------|-3----------------------|

|-------------0-----2--3-|-0--2-------------------|
|------------------------|-------3----------------|
|-0----------------------|----------4-----0-------|
|----2-----2-------------|-------------0-----2----|
|-------2-----------0----|----2-----------------2-|
|-0----------------------|----------------0-------|

|----0-----0-------------|------------------------|
|-------------3-----0----|----------0-----0--1--0-|
|-------0--------0-----0-|------------------------|
|-2----------------------|-2-----4----------------|
|------------------------|----2-------------------|
|----0-----------------0-|----------3-----2-------|

|----------------2-------|
|----------3----------3--|
|-2----2------2----------|
|------------------------|
|------------------------|
|------------------------|

|----------------0--0--2-|-3--2--3--2--0----------|
|------------------------|----------------3--0--0-|
|-------------0----------|------------------------|
|----------2-------------|------------------------|
|-------2--------------0-|----2--0--------2-------|
|----0-------------------|-------------------3--3-|

|----0-----0-------------|------------------------|
|-------------3-----0----|----0--0--1--0----------|
|-------0--------0-------|----------------2-----2-|
|----------------------2-|------------------------|
|------------------------|-2----------------------|
|----0-------------------|----3--3----------------|

|-------2--------------2-|
|-3--------3--------3----|
|----2-----------2-------|
|-------------0----------|
|------------------------|
|------------------------|



|----------0-------------|------------------------|
|-------0-----3--3--0--3-|-------------0--0--3--1-|
|-0--2-------------------|-4-----4----------------|
|------------------------|----4-------------------|
|-------2----------------|------------------------|
|------------------------|------------------------|
 
|-------------------0----|------------------------|
|-0-----0--0--1--0-----3-|-3--0--3--------------0-|
|----2-------------------|----------4-----4-------|
|------------------------|-------------4----------|
|----------------2-------|------------------------|
|------------------------|------------------------|
                                                           
|-------------------2H-3P|-2P-0-----------5-------|
|-0--3--1--0-----3-------|-------3-----------7----|
|-------------2----------|----------2-----------7-|
|------------------------|------------------------|
|------------------------|------------------------|
|------------------------|------------------------|
                                                                         
|10----------------------|
|10----------------------|
|------------------------|
|------------------------|
|------------------------|
|------------------------|

|------------------------|------------------------|
|----------------0--1--3-|----------3-------------|
|----------0-------------|-0-----0-----0-----0--0-|
|-------------2----------|----2-----------2-------|
|-------2----------------|------------------------|
|----0-------------------|----------------------0-|

|----------0-----2--3--0-|-2----------------------|
|------------------------|----3-------------------|
|------------------------|-------4-----0----------|
|-2-----2----------------|----------0-----2-----2-|
|----2-----------0-------|-2-----------------2----|
|------------------------|-------------0----------|

|-0-----0----------------|------------------------|
|----------3-----0-------|-------0-----0--1--0----|
|----0--------0-----0----|----------0-----------2-|
|----------------------2-|----4-------------------|
|------------------------|-2----------------------|
|-0-----------------0----|-------3-----2----------|
 
|----------2H-3P-2P-0P---|------------------------|
|-------3--------------3-|------------------------|
|----2-------------------|-0----------------------|
|------------------------|------------------------|
|------------------------|------------------------|
|------------------------|------------------------|
Suggest correction
comments
print report bad tab
1 comment total.
-1 reply
Frusciante19 20 wrote on October 29 2010, 06:12 am

nice tab thnks

guest
You may want to rate the tab now too:
select rating
Wanna post a correction for this tab? Suggest correction