Oops, an error
Loading. Please wait.

Sunshine Factory - Do-Ka Bass Tab

52 views 1 this week
no commentswrite comment
1 2 3 4 5
please rate
add to favorites
launch autoscroll
font size
0
reset
guitar tuner
Autoscroll
slow
fast
+/-
esc
set tempo
stop
Help us to improve Ultimate-Guitar.com Take our survey!
×
Author
Difficulty
novice
Verse
g----------------------------------------------------|
d----------------------------------------------------|
a-2-2-2-2-2-2-4-4-6-6-6-6-6-6-6-6--------------------|
E----------------------------------------------------|

Heavy part
g--------------------------------------------------|
d--------------------------------------------------|
a-2-2--6-6--9-(10) second time---------------------|
E--2----6------------------------------------------|


Middle part

G  D  (repeat) E D C D C D Bb A Bb A Bb A (build up)


g----------------------------------------------------|
d----------------------------------------------------|
a-2-2-2-2-2-2-4-4-6-6-6-6-6-6-6-6--------------------|
E----------------------------------------------------|

then Pause, then keychange half step up (verse).

g--------------------------------------9----------------|
d-------2-2-2-------3-3-3-------5-5-5-------------------|
a-3-3-3-------4-4-4-------5-5-5--------7----------------|
E--------------------------------------0----------------|
Suggest correction
What's this?
You can suggest a correction to this tab. Community and Mods will review your correction and vote to approve or reject it.
comments
We did not receive enough feedback on this tab! Please rate:
print report bad tab
1 2 3 4 5
guest
You may want to rate the tab now too:
select rating
Please do not post tabs as comments. Select "correction" instead!