Oops, an error
Loading. Please wait.

Sunshine Factory - Rather Not Bass Tab

59 views 1 this week
no commentswrite comment
1 2 3 4 5
please rate
add to favorites
launch autoscroll
font size
0
reset
guitar tuner
Autoscroll
slow
fast
+/-
esc
set tempo
stop
Help us to improve Ultimate-Guitar.com Take our survey!
×
Author
Difficulty
novice
Rather Not

Intro/ Verse

g-----------------5--------------------------------------|
d--------5--7-------7--5---------------------------3-----|
a----5/7------------------7----5-5-3-5-3---5-5-3-5--5-3--|
E-5------------------------------------------------------|

g-----------------5--------------------------------------|
d--------5--7-------7--5---------------------------------|
a----5/7------------------7--5-5-7-7-8-8-7-7-------------|
E-5------------------------------------------------------|


CHORUS
g--------------------------------------|
d--------------------------------------|
a-------------------------5/7--5--3----|
E-3-3-3-3-6-6-6-6-5-5-5-5--------------|

g------------------------------------|
d------------------------------------|
a-------------------------7-8-10-8-7-|
E-3-3-3-3-6-6-6-6-5-5-5-5------------|

g------------------------|
d------------------------|
a------------------------|
E-3-3-3-3-6-6-6-6-1------|

Verse 2
g---------------------------------|---------------------------------|
d---------------------------------|---------------------------------|
a-----------------5-5-5-5-5-5-5-5-|-------------------5555-----5555-|(Repeat)
E-5-5-5-5-5-5-5-5-----------------|-5555-----5555-------------------|

CHORUS

g----------------------------------|-------------------------------------|
d----------------------------------|-------------------------------------|
a---5-5------4-4-----3-3---5/7-5-3-|---5-5------4-4-----3-3---7-8-10-8-7-|
E-3----3---6----6--5-----5---------|-3----3---6----6--5-----5------------|

g----------------------------------|
d----------------------------------|
a---5-5------4-4-------------------|
E-3----3---6----6--1---------------|


Ending
g--------------------|
d-------------5-6-7--|
a-------5-6-7--------|
E-5-5-5--------------|
Suggest correction
What's this?
You can suggest a correction to this tab. Community and Mods will review your correction and vote to approve or reject it.
comments
We did not receive enough feedback on this tab! Please rate:
print report bad tab
1 2 3 4 5
guest
You may want to rate the tab now too:
select rating
Please do not post tabs as comments. Select "correction" instead!