Oops, an error
Loading. Please wait.

Sunshine Factory - Sundial Bass Tab

63 views 1 this week
no commentswrite comment
1 2 3 4 5
please rate
add to favorites
launch autoscroll
font size
0
reset
guitar tuner
Autoscroll
slow
fast
+/-
esc
set tempo
stop
Help us to improve Ultimate-Guitar.com Take our survey!
×
Author
Difficulty
novice
Sundial

Intro
g---------------------------------------------------|
d---------------------------------------------------|
a-------3-2--------3-2-------3-2-------3------------|
E-5-0-2------5-0-2-----5-0-2-----5-0-2--------------|


verse
g------------------5/7-5----------------------------|
d-------7----------------7--------------------------|
a-0-0-0---0--3-3-3----------------------------------|
E---------------------------------------------------|

chorus x2
g-----10----9h10------10----9h10--------12----10h12-------12----10h12--|
d--------10--------------10----------------12----------------12--------|
a-8-8-------------8-8-------------10-10-------------10-10--------------|
E----------------------------------------------------------------------|

Break Down
g--------------------------------------------|
d--------------------------------------------|
a--------------------------------------------|
E-5-5-5-5-5-5-5-5-2-2-2-2-1-1-1-1------------|

Ending

repeat                 end on A
g-----6--------9---------------|
d-------7--------10------------|
a---7-------10-----------------|
E-5-------8--------------------|
Suggest correction
Give kudos to tab author, rate the tab!
1 2 3 4 5
comments
print report bad tab
guest
You may want to rate the tab now too:
select rating
Please do not post tabs as comments. Select "correction" instead!