Oops, an error
Loading. Please wait.

Surf Nazis Must Die - Worthless Sunday tab

255 views 1 this week
no commentswrite comment
1 2 3 4 5
3 more votes to show rating
add to favorites
×
Save as Personal and add changes to this tab that will be seen only by you. Learn more ›
×
You can save this tab as Personal to edit and correct it or add notes. All changes will be seen only by you. Learn more »
launch autoscroll
font size
0
reset
how to read this tab
guitar tuner
edit
Autoscroll
slow
fast
+/-
esc
set tempo
stop
Author
Worthless Sunday
      by
Surf Nazis Must Die

There's a slight variation in the third time the last riff is played, but I think you can figure it out quite
easily. Also, it doesn't matter, 'cause it's Powerviolence, honey.


Bass plays the intro, but if you wanna play it, just strum your open E string.

Riff 1
e---------------------------------------------------------------------------|
B---------------------------------------------------------------------------|
G---------------------------------------------------------------------------|
D-5-5-5-5-5-5-5-4-4-4--5-5-5-5-5-5-5-4-4-7-7--5-5-5-5-5-5-5-4-4-4--5--5-5-5-|
A-5-5-5-5-5-5-5-4-4-4--5-5-5-5-5-5-5-4-4-7-7--5-5-5-5-5-5-5-4-4-4--5--5-5-5-|
E-3-3-3-3-3-3-3-2-2-2--3-3-3-3-3-3-3-2-2-5-5--3-3-3-3-3-3-3-2-2-2--3--3-3-3-|

Riff 2 (play last chord for 7 beats)
e-------------------------------------------------------------------------|
B-------------------------------------------------------------------------|
G-9-9------------------9-9------------------9-9---------------------------|
D-9-9-9-9-11-11-11-11--9-9-9-9-11-11-11-11--9-9-9-9-11-11-9-9-7-7-9-9-6~-4|
A-7-7-9-9-11-11-11-11--7-7-9-9-11-11-11-11--7-7-9-9-11-11-9-9-7-7-9-9-6~-4|
E-----7-7-9--9--9--9-------7-7-9--9--9--9-------7-7-9--9--7-7-5-5-7-7-4~-2|

Riff 3 (listen for rhythm, it's kinda complicated)
e------------------------------------------------------------|
B------------------------------------------------------------|
G------------------------------------------------------------|
D-6-6-6-6-6-6-6-4-4-4-6-6-6-6-6-6-6-4-4-4--6--6--6--6-5-5-5-5|
A-6-6-6-6-6-6-6-4-4-4-6-6-6-6-6-6-6-4-4-4--6--6--6--6-5-5-5-5|
E-4-4-4-4-4-4-4-2-2-2-4-4-4-4-4-4-4-2-2-2--4--4--4--4-7-7-7-7|

Structure:

Riff 1
Riff 2
Riff 1 again
Riff 2 (x2, without last chord)
Riff 3 (two or three times, end going back in semi-tones)

            
            
Suggest correction
Creating personal tab
Creating personal tab
You can edit any tab online and save it as your Personal.

You can edit, replace or remove any tab part or add personal notes – all changes will be seen only by you.

Personal tabs can be accessed anytime from any device, even offline.
Learn more »
Give kudos to tab author, rate the tab!
1 2 3 4 5
comments
print report bad tab
guest
You may want to rate the tab now too:
select rating
Wanna post a correction for this tab? Suggest correction