Oops, an error
Loading. Please wait.

Swamp Monster - Entombed Within A Grave Of Glass tab

107 views 3 this week
no commentswrite comment
1 2 3 4 5
2 more votes to show rating
add to favorites
×
Save as Personal and add changes to this tab that will be seen only by you. Learn more ›
×
You can save this tab as Personal to edit and correct it or add notes. All changes will be seen only by you. Learn more »
launch autoscroll
font size
0
reset
how to read this tab
guitar tuner
edit
Autoscroll
slow
fast
+/-
esc
set tempo
stop
Harmonic - *
Palm mute - .
Vibrato - ~
bend high, then release bend and slide down - \

Both Guitars
|-----------------------------------------------------------------|
|-----------------------------------------------------------------|
|-----------------------------------------------------------------|
|-------------------------------------------------1-0-1-4-3-2-3-1-|
|-------3-------2-------3-------2-------3-------2-1-0-1-4-3-2-3-1-|
|-0-1-4---0-1-3---0-1-4---0-1-3---0-1-4---0-1-3---1-0-1-4-3-2-3-1-|x2
                                                  . . . . . . . .
Guitar 1
|-----------------------------------------------------------------|
|-----------------------------------------------------------------|
|-----------------------------------------------------------------|
|-------------------------------------------------333-666-666-999-|
|---------222-555---------222-555---------222-555-----------------|
|-333-666---------333-666---------333-666-------------------------|
  ... ... ... ... ... ... ... ... ... ... ... ... ... ... ... ...

Guitar 2
|-----------------------------------------------------------------|
|-----------------------------------------------------------------|
|---------------------------------------------------------444-777-|
|-------------------------------------------------333-666---------|
|---------222-555---------222-555---------222-555-----------------|
|-333-666---------333-666---------333-666-------------------------|
  ... ... ... ... ... ... ... ... ... ... ... ... ... ... ... ...

Guitar 1
|-----------------------------------------------------------------|
|-----------------------------------------------------------------|
|-----------------------------------------------------------------|
|-----------------------------------------------------------------|
|---------222-555---------222-555---------222-555-----------------|
|-333-666---------333-666---------333-666---------222-555-111-444-|
  ... ... ... ... ... ... ... ... ... ... ... ... ... ... ... ...

Guitar 2
|-----------------------------------------------------------------|
|-----------------------------------------------------------------|
|-----------------------------------------------------------------|
|-----------------------------------------------------------------|
|---------222-555---------222-555---------222-555-----------------|
|-333-666---------333-666---------333-666---------222-555-111-444-|
  ... ... ... ... ... ... ... ... ... ... ... ... ... ... ... ...

Guitar 1
|-----------------------------------------------------------------|
|-----------------------------------------------------------------|
|-----------------------------------------------------------------|
|-----------------3h6p3p0-------------------------3h6p3p0-6h9p6po-|
|---------2h5p2p0---------2h5p2p0---------2h5p2po-----------------|
|-3h6p3p0-------------------------3h6p3p0-------------------------|

Guitar 2
|-----------------------------------------------------------------|
|-----------------------------------------------------------------|
|---------------------------------------------------------4h7p4p0-|
|-------------------------------------------------3h6p3p0---------|
|---------2h5p2p0---------2h5p2p0---------2h5p2po-----------------|
|-3h6p3p0---------3h6p3p0---------3h6p3p0-------------------------|

Guitar 1
|-----------------------------------------------------------------|
|-----------------------------------------------------------------|
|-----------------------------------------------------------------|
|-----------------3h6p3p0---------------------------------1-1-1-1-|
|---------2h5p2p0---------2h5p2p0---------2h5p2po---------0-0-0-0-|
|-3h6p3p0-------------------------3h6p3p0---------2h5p2p0-1-1-1-1-|
                                                          . . . .

Guitar 2
|-----------------------------------------------------------------|
|-----------------------------------------------------------------|
|-----------------------------------------------------------------|
|---------------------------------------------------------1-1-1-1-|
|---------2h5p2p0---------2h5p2p0---------2h5p2po---------0-0-0-0-|
|-3h6p3p0---------3h6p3p0---------3h6p3p0---------2h5p2p0-1-1-1-1-|

Guitar 2 only
|-------------------------------------------|
|-------------------------------------------|
|---------------------------------------*3~-| <--guitar 1 does the
|-111-1-1---111-1-1-111-1-1---111-1-1-------|    pinch harmonic here
|-000-0-0---000-0-0-000-0-0---000-0-0-------|
|-111-1-1---111-1-1-111-1-1---111-1-1-------|
  ... . .   ... . . ... . .   ... . .

Guitar 1
|---------------------------------------------------------------------------|
|---------------------------------------------------------------------------|
|---------------------------------------------------------13h16-------14h17-|
|-000-0-0---000-0-0---000-0-0-000-0-0---000-0-0---0-13h16-------14h17-------|
|-000-0-0---000-0-0---000-0-0-000-0-0---000-0-0---0-------------------------|
|-000-0-0---000-0-0---000-0-0-000-0-0---000-0-0---0-------------------------|x4
  ... . .   ... . .   ... . . ... . .   ... . .   . 
(last 2 times completely mute strings)

Guitar 2
|----------------------------------------------------------------------------|
|----------------------------------------------------------------------------|
|----------------------------------------------------------10h14-------11h15-|
|-000-0-0---000-0-0---000-0-0-000-0-0---000-0-0---0-10h114-------11h15-------|
|-000-0-0---000-0-0---000-0-0-000-0-0---000-0-0---0--------------------------|
|-000-0-0---000-0-0---000-0-0-000-0-0---000-0-0---0--------------------------|x4
  ... . .   ... . .   ... . . ... . .   ... . .   . 
(last 2 times completely mute strings)

Both Guitars
|-----------------------------------------------------------------------------|
|-----------------------------------------------------------------------------|
|-----------------------------------------------------------------------------|
|-------------------------------------------------------------1-0-1-4-3-2-3-1-|
|---------3---------2---------3---------2---------3---------2-1-0-1-4-3-2-3-1-|
|-000-1-4---000-1-3---000-1-4---000-1-3---000-1-4---000-1-3---1-0-1-4-3-2-3-1-|x2
                                                              . . . . . . . .
Both Guitars                             _____
|--------------------------------------|      |
|--------------------------------------|      |
|-----2-3-----1-0----------------------|      |
|-000-2-3-000-1-0-000-0-0-444444333333-|      |
|-000-----000-----000-0-0-111111000000-|      |
|-000-----000-----000-0-0--------------|      |
  ...     ...     ... . .                     |
                                              | X2
|--------------------------------------|      |
|--------------------------------------|      |
|-----2-3-----1-0----------------------|      |
|-000-2-3-000-1-0-000-0-0-444444777777-|      |
|-000-----000-----000-0-0-111111444444-|      |
|-000-----000-----000-0-0--------------|      |
  ...     ...     ... . .                _____|

Still Both
|-------------------|   |-------------------|
|-------------------|   |-------------------|
|-6666-6-666-6-66-6-|   |-4444-4-444-4-44-4-|
|-7777-7-777-7-77-7-|   |-5555-5-555-5-55-5-|
|-4444-4-444-4-44-4-|   |-2222-2-222-2-22-2-|
|-4444-4-444-4-44-4-|x2 |-2222-2-222-2-22-2-|x2
  .... . ... . .. .       .... . ... . .. .

|-------------------|   |-------------------|
|-------------------|   |-------------------|
|-7777-7-777-7-77-7-|   |-5555-5-555-5-55-5-|
|-8888-8-888-8-88-8-|   |-6666-6-666-6-66-6-|
|-5555-5-555-5-55-5-|   |-3333-3-333-3-33-3-|
|-5555-5-555-5-55-5-|x2 |-3333-3-333-3-33-3-|x2
  .... . ... . .. .       .... . ... . .. .

|-----------------|   |-----------------|
|-----------------|   |-----------------|
|-6-6-6-6-6-6-6-6-|   |-6-6-6-6-6-6-6-6-|
|-7-7-7-7-7-7-7-7-|   |-5-5-5-5-5-5-5-5-|
|-4-4-4-4-4-4-4-4-|   |-2-2-2-2-2-2-2-2-|
|-4-4-4-4-4-4-4-4-|x2 |-2-2-2-2-2-2-2-2-|x2
  . .   . .   .         . .   . .   .

|-----------------|   |-----------------|
|-----------------|   |-----------------|
|-7-7-7-7-7-7-7-7-|   |-5-5-5-5-5-5-5-5-|
|-8-8-8-8-8-8-8-8-|   |-6-6-6-6-6-6-6-6-|
|-5-5-5-5-5-5-5-5-|   |-3-3-3-3-3-3-3-3-|
|-5-5-5-5-5-5-5-5-|x2 |-3-3-3-3-3-3-3-3-|x2
  . .   . .   .         . .   . .   .

Guitar 1
|-------------|
|-------------|
|---------*3\-|
|-3--2--1-----|
|-2--1--0-----|
|-3--2--1-----|
  .  .  .

Both guitars
|---------------------------------------------|
|---------------------------------------------|
|---------------------------------------------|
|-000-000-000----000----000-000-000-000---000-|
|-000-000-000----000----000-000-000-000---000-|
|-000-000-000----000----000-000-000-000---000-|
  ... ... ...    ...    ... ... ... ...   ...

|-----------------------------------------------|
|-----------------------------------------------|
|-----------------------------------------------|
|-000-000-000-000---000---000-000-000-000---000-|
|-000-000-000-000---000---000-000-000-000---000-|
|-000-000-000-000---000---000-000-000-000---000-|
  ... ... ... ...   ...   ... ... ... ...   ...

|-----------------------------------------------|
|-----------------------------------------------|
|-----------------------------------------------|
|-000-111-111-111---111---111-111-111-111---111-|
|-000-000-000-000---000---000-000-000-000---000-|
|-000-111-111-111---111---111-111-111-111---111-|
  ... ... ... ...   ...   ... ... ... ...   ...

|-----------------------------------------------------|
|-----------------------------------------------------|
|-----------------------------------------------------|
|-111-111-111-111---111---111-111-111-111---111---111-|
|-000-000-000-000---000---000-000-000-000---000---000-|
|-111-111-111-111---111---111-111-111-111---111---111-|
  ... ... ... ...   ...   ... ... ... ...   ...   ...

Both Guitars
|-----------------------------------------------------------------|
|-----------------------------------------------------------------|
|-----------------------------------------------------------------|
|-------------------------------------------------1-0-1-4-3-2-3-1-|
|-------3-------2-------3-------2-------3-------2-1-0-1-4-3-2-3-1-|
|-0-1-4---0-1-3---0-1-4---0-1-3---0-1-4---0-1-3---1-0-1-4-3-2-3-1-|x2
                                                  . . . . . . . .
Guitar 1
|-----------------------------------------------------------------|
|-----------------------------------------------------------------|
|-----------------------------------------------------------------|
|-------------------------------------------------333-666-666-999-|
|---------222-555---------222-555---------222-555-----------------|
|-333-666---------333-666---------333-666-------------------------|
  ... ... ... ... ... ... ... ... ... ... ... ... ... ... ... ...

Guitar 2
|-----------------------------------------------------------------|
|-----------------------------------------------------------------|
|---------------------------------------------------------444-777-|
|-------------------------------------------------333-666---------|
|---------222-555---------222-555---------222-555-----------------|
|-333-666---------333-666---------333-666-------------------------|
  ... ... ... ... ... ... ... ... ... ... ... ... ... ... ... ...

Guitar 1
|-----------------------------------------------------------------|
|-----------------------------------------------------------------|
|-----------------------------------------------------------------|
|-----------------------------------------------------------------|
|---------222-555---------222-555---------222-555-----------------|
|-333-666---------333-666---------333-666---------222-555-111-444-|
  ... ... ... ... ... ... ... ... ... ... ... ... ... ... ... ...

Guitar 2
|-----------------------------------------------------------------|
|-----------------------------------------------------------------|
|-----------------------------------------------------------------|
|-----------------------------------------------------------------|
|---------222-555---------222-555---------222-555-----------------|
|-333-666---------333-666---------333-666---------222-555-111-444-|
  ... ... ... ... ... ... ... ... ... ... ... ... ... ... ... ...

Guitar 1
|-----------------------------------------------------------------|
|-----------------------------------------------------------------|
|-----------------------------------------------------------------|
|-----------------3h6p3p0-------------------------3h6p3p0-6h9p6po-|
|---------2h5p2p0---------2h5p2p0---------2h5p2po-----------------|
|-3h6p3p0-------------------------3h6p3p0-------------------------|

Guitar 2
|-----------------------------------------------------------------|
|-----------------------------------------------------------------|
|---------------------------------------------------------4h7p4p0-|
|-------------------------------------------------3h6p3p0---------|
|---------2h5p2p0---------2h5p2p0---------2h5p2po-----------------|
|-3h6p3p0---------3h6p3p0---------3h6p3p0-------------------------|

Guitar 1
|-----------------------------------------------------------------|
|-----------------------------------------------------------------|
|-----------------------------------------------------------------|
|-----------------3h6p3p0---------------------------------1-1-1-1-|
|---------2h5p2p0---------2h5p2p0---------2h5p2po---------0-0-0-0-|
|-3h6p3p0-------------------------3h6p3p0---------2h5p2p0-1-1-1-1-|
                                                          . . . .

Guitar 2
|-----------------------------------------------------------------|
|-----------------------------------------------------------------|
|-----------------------------------------------------------------|
|---------------------------------------------------------1-1-1-1-|
|---------2h5p2p0---------2h5p2p0---------2h5p2po---------0-0-0-0-|
|-3h6p3p0---------3h6p3p0---------3h6p3p0---------2h5p2p0-1-1-1-1-|

            
            
Suggest correction
Creating personal tab
Creating personal tab
You can edit any tab online and save it as your Personal.

You can edit, replace or remove any tab part or add personal notes – all changes will be seen only by you.

Personal tabs can be accessed anytime from any device, even offline.
Learn more »
Give kudos to tab author, rate the tab!
1 2 3 4 5
comments
print report bad tab
guest
You may want to rate the tab now too:
select rating
Wanna post a correction for this tab? Suggest correction