Oops, an error
Loading. Please wait.

Swarm The North - Say Hello Tab

99 views 1 this week
no commentswrite comment
1 2 3 4 5
please rate
add to favorites
launch autoscroll
font size
0
reset
how to read this tab
guitar tuner
Autoscroll
slow
fast
+/-
esc
set tempo
stop
Help us to improve Ultimate-Guitar.com Take our survey!
×
Author
"Say Hello" By Swarm The North

b = bend

INTRO

e---------------------------------------------------------|
b---------------------------------------------------------|
G-----9---10---9---7---5---7---5---9---10---9----7-5-7-5--|
D---0---0----0---0---0---0---0---0---0----0----0-0-0-0-0--|
A---------------------------------------------------------|
E---------------------------------------------------------|

e---------------------------------------------------------|
b---------------------------------------------------------|
G-----9---10---9---7---5---7------------------------------|
D---0---0----0---0---0---0--------------------------------|
A---------------------------------------------------------|
E---------------------------------------------------------|


Verse 1

e------------------------------------------------------|
b------------------------------------------------------|
G----3-------------------------5-----------------------|
D----3-------------------------5-----------------------|
A----1-------------------------3-----------------------|
E------------------------------------------------------|
  he was the fun loving guy,   with the sun in his eye.

e------------------------------------------------------------------|
b------------------------------------------------------------------|
G----7--7--7--7--7--7--7--7--7-----3--3--3--3--3--3--3--3--3-------|
D----7--7--7--7--7--7--7--7--7-----3--3--3--3--3--3--3--3--3-------|
A----5--5--5--5--5--5--5--5--5-----1--1--1--1--1--1--1--1--1-------|
E------------------------------------------------------------------|
        That you,                     you left him behind.

Verse 2

e----------------------------------------------------------|
b----------------------------------------------------------|
G------3--3--3--3--3--3--3--3--3---5--5--5--5--5--5--5--5--|
D------3--3--3--3--3--3--3--3--3---5--5--5--5--5--5--5--5--|
A------1--1--1--1--1--1--1--1--1---3--3--3--3--3--3--3--3--|
E----------------------------------------------------------|
     He still loved you too,       now what the fuck will he do?

e--------------------------------------------------------------|
b--------------------------------------------------------------|
G----7--7--7--7--7--7--7--7--7-----3--3--3--3--3--3--3--3--3---|
D----7--7--7--7--7--7--7--7--7-----3--3--3--3--3--3--3--3--3---|
A----5--5--5--5--5--5--5--5--5-----1--1--1--1--1--1--1--1--1---|
E--------------------------------------------------------------|
           With his life           now that your gone....


Chorus

e---------------------------------------------------------------|
b---------------------------------------------------------------|
G----8-8-8-8-8-8-8-8-8-8---6-6-6-6-6-6-6-6-6-6------------------|
D----8-8-8-8-8-8-8-8-8-8---6-6-6-6-6-6-6-6-6-6------------------|
A----6-6-6-6-6-6-6-6-6-6---4-4-4-4-4-4-4-4-4-4------------------|
E---------------------------------------------------------------|
  He should move   on---- but he can't let you go---------------|

e------------------------------------------------------------------|
b------------------------------------------------------------------|
G----8-8-8-8-8-8-8-8-8-8-------6-6-6-6-6-6-6-6-6-6-----------------|
D----8-8-8-8-8-8-8-8-8-8-------6-6-6-6-6-6-6-6-6-6-----------------|
A----6-6-6-6-6-6-6-6-6-6-------4-4-4-4-4-4-4-4-4-4-----------------|
E------------------------------------------------------------------|
 --as you lead your life off    track.....

e--------------------------------------------------------------|
b--------------------------------------------------------------|
G----8-8-8-8-8-8-8-8-8-8---6-6-6-6-6-6-6-6-6-6-----------------|
D----8-8-8-8-8-8-8-8-8-8---6-6-6-6-6-6-6-6-6-6-----------------|
A----6-6-6-6-6-6-6-6-6-6---4-4-4-4-4-4-4-4-4-4-----------------|
E--------------------------------------------------------------|
         GOODBYE               SAY HELLO!!!!!

Verse 3

e----------------------------------------------------------|
b----------------------------------------------------------|
G------3--3--3--3--3--3--3--3--3---5--5--5--5--5--5--5--5--|
D------3--3--3--3--3--3--3--3--3---5--5--5--5--5--5--5--5--|
A------1--1--1--1--1--1--1--1--1---3--3--3--3--3--3--3--3--|
E----------------------------------------------------------|
      She'd derailed his life,      and left him for dead.

e--------------------------------------------------------------|
b--------------------------------------------------------------|
G----7--7--7--7--7--7--7--7--7-----3--3--3--3--3--3--3--3--3---|
D----7--7--7--7--7--7--7--7--7-----3--3--3--3--3--3--3--3--3---|
A----5--5--5--5--5--5--5--5--5-----1--1--1--1--1--1--1--1--1---|
E--------------------------------------------------------------|
          Now that she,             she found someone else

e----------------------------------------------------------|
b----------------------------------------------------------|
G------3--3--3--3--3--3--3--3--3---5--5--5--5--5--5--5--5--|
D------3--3--3--3--3--3--3--3--3---5--5--5--5--5--5--5--5--|
A------1--1--1--1--1--1--1--1--1---3--3--3--3--3--3--3--3--|
E----------------------------------------------------------|
                                       HE   CAN'T    GO

e----------------------------------|
b----------------------------------|
G----7--7--7--7--7--7--7--7--7-----|
D----7--7--7--7--7--7--7--7--7-----|
A----5--5--5--5--5--5--5--5--5-----|
E----------------------------------|
        ON-------------------------|!!!!

SOLO!!!

e------------------------------------------------------------|
b------------------------------------------------------------|
G----------------5---7b-7b-7b---5---3------------------------|
D----------5---7----------------------5---3b-3b-3b-----------|
A----5---7---------------------------------------------------|
E------------------------------------------------------------|

e------------------------------------------------------------|
b------------------------------------------------------------|
G-------------5--7b-7b-7b--7--9b-9b-9b-9b-9b--9--11b---------|
D--------5--7------------------------------------------------|
A---5--7-----------------------------------------------------|
E------------------------------------------------------------|

e-------------------15-15-15-15----17-17-17-17----19-19-19-19-|
b-------------------------------------------------------------|
G--11b-11b-11b-11b--------------------------------------------|
D-------------------------------------------------------------|
A-------------------------------------------------------------|
E-------------------------------------------------------------|

Chorus

e---------------------------------------------------------------|
b---------------------------------------------------------------|
G----8-8-8-8-8-8-8-8-8-8---6-6-6-6-6-6-6-6-6-6------------------|
D----8-8-8-8-8-8-8-8-8-8---6-6-6-6-6-6-6-6-6-6------------------|
A----6-6-6-6-6-6-6-6-6-6---4-4-4-4-4-4-4-4-4-4------------------|
E---------------------------------------------------------------|
  He should move   on---- but he can't let you go---------------|

e------------------------------------------------------------------|
b------------------------------------------------------------------|
G----8-8-8-8-8-8-8-8-8-8-------6-6-6-6-6-6-6-6-6-6-----------------|
D----8-8-8-8-8-8-8-8-8-8-------6-6-6-6-6-6-6-6-6-6-----------------|
A----6-6-6-6-6-6-6-6-6-6-------4-4-4-4-4-4-4-4-4-4-----------------|
E------------------------------------------------------------------|
 --as you lead your life off    track.....

e--------------------------------------------------------------|
b--------------------------------------------------------------|
G----8-8-8-8-8-8-8-8-8-8---6-6-6-6-6-6-6-6-6-6-----------------|
D----8-8-8-8-8-8-8-8-8-8---6-6-6-6-6-6-6-6-6-6-----------------|
A----6-6-6-6-6-6-6-6-6-6---4-4-4-4-4-4-4-4-4-4-----------------|
E--------------------------------------------------------------|
         GOODBYE               SAY HELLO!!!!!

e--------------------------------------------------------------|
b--------------------------------------------------------------|
G----8-8-8-8-8-8-8-8-8-8---6-6-6-6-6-6-6-6-6-6-----------------|
D----8-8-8-8-8-8-8-8-8-8---6-6-6-6-6-6-6-6-6-6-----------------|
A----6-6-6-6-6-6-6-6-6-6---4-4-4-4-4-4-4-4-4-4-----------------|
E--------------------------------------------------------------|
         GOODBYE               SAY HELLO!!!!!
e--------------------------------------------------------------|
b--------------------------------------------------------------|
G----8---------------------6-----------------------------------|
D----8---------------------6-----------------------------------|
A----6---------------------4-----------------------------------|
E--------------------------------------------------------------|
         GOODBYE               SAY HELLO!!!!!
Suggest correction
What's this?
You can suggest a correction to this tab. Community and Mods will review your correction and vote to approve or reject it.
comments
We did not receive enough feedback on this tab! Please rate:
print report bad tab
1 2 3 4 5
guest
You may want to rate the tab now too:
select rating
Please do not post tabs as comments. Select "correction" instead!