Oops, an error
Loading. Please wait.

Sweet Affair - Lets Just Be Friends tab

901 views 3 this week
no commentswrite comment
1 2 3 4 5
3 more votes to show rating
add to favorites
×
Save as Personal and add changes to this tab that will be seen only by you. Learn more ›
×
You can save this tab as Personal to edit and correct it or add notes. All changes will be seen only by you. Learn more »
launch autoscroll
font size
0
reset
how to read this tab
guitar tuner
edit
Autoscroll
slow
fast
+/-
esc
set tempo
stop
Author
Difficulty
-------------------------------------------------------------------------------
                             SWEET AFFAIR - LETS JUST BE FRIENDS
-------------------------------------------------------------------------------
Tabbed by: Eidur + Pug
Email: eidur22_liam@hotmail.com

Tuning: Standard

GUITAR 1 - Mikie Daniel

INTRO

e|-----------------|
B|-----------------|
G|------------999--|    x3
D|-999-77-999-999--|
A|-999-77-999-777--|
E|-777-55-777------|

VERSE

e|---------------------------------------------------------------|
B|---------------------------------------------------------------|
G|---------------------------------------------------------------|    x1
D|-1212121212121212-1414141414141414-12121212-14141414-99999999--|
A|-1212121212121212-1414141414141414-12121212-14141414-99999999--|
E|-1010101010101010-1212121212121212-10101010-12121212-77777777--|

CHORUS

e|---------------------------------------|
B|---------------------------------------|
G|---------------------------------------|   x3 
D|-99999999-55555555-77777777-44444444---|   (On third time end on 5th fret)
A|-99999999-55555555-77777777-44444444---|
E|-77777777-33333333-55555555-22222222---|

SOLO 1

e|-------------------------------------------------------|
B|-------------------------------------------------------|
G|---fb9------------9-------9-7----9-7----9-7----9-7-----|
D|-------------------------------------------------------|
A|-------------------------------------------------------|
E|-------------------------------------------------------|

e|----------------------------------------------------------|
B|----------------------------------------------------------|
G|--fb9-9-9-9-9-9-9-9-9-9-9-9-9-9-9-9-9-9-9-9-9-9-9-9-9-----|
D|----------------------------------------------------------|
A|----------------------------------------------------------|
E|----------------------------------------------------------|


GUITAR 2 - Rich Juggins (Pug)

INTRO

e|------------------|
B|------------------|
G|------------------|   x3
D|------------------|
A|------------777---|
E|-777-55-777-------|

VERSE

e|----------------------------------------------------------------|
B|----------------------------------------------------------------|
G|----------------------------------------------------------------|   x1
D|----------------------------------------------------------------|
A|----------------------------------------------------------------|
E|-1010101010101010-1212121212121212-10101010-12121212-77777777---|

CHORUS

e|---------------------------------------|
B|---------------------------------------|
G|---------------------------------------|
D|---------------------------------------|
A|---------------------------------------|
E|-77777777-33333333-55555555-22222222---|

INTERLUDE

e|-----------|
B|-----------|
G|---9-------|   x3
D|-9-9-7-9---|
A|-9-7-7-9---|
E|-7---5-7---|

SOLO 2 - Wah Wah Pedal

e|-----------------------------------------------|
B|-----------------------------------------------|
G|----------7h9---hb9—hb9--9-9-9-9-7h9-7h9-7h9---|
D|-7h9-------------------------------------------|
A|-----------------------------------------------|
E|-----------------------------------------------|

e|-----------------------------------------------|
B|-----------------hb10-7-7-10-7-10-7------------|
G|-7h9p7h9p7--------------------------9p7-9~~~---|
D|-----------------------------------------------|
A|-----------------------------------------------|
E------------------------------------------------|

e|-------7-10---7-10---7-10/fb12-12-12---12-12-12-12---|
B|---10------------------------------------------------|
G|-----------------------------------------------------|
D|-----------------------------------------------------|
A|-----------------------------------------------------|
E|-----------------------------------------------------|

e|----12-10h12-10h12-10h12-10-------------------------------|
B|--------------------------------12p10h12p10---------------|
G|----------------------------------------------------------|
D|----------------------------------------------------------|
A|----------------------------------------------------------|
E|----------------------------------------------------------|

e|----12-10h12-10h12-10h12-10-------------------------------|
B|--------------------------------12p10h12p10---------------|
G|----------------------------------------------------------|
D|----------------------------------------------------------|
A|----------------------------------------------------------|
E|----------------------------------------------------------|

e|----12-10h12-10h12—fb12---12-10h12-10---------------------|
B|---------------------------------------------12p10h12~~~~-|
G|----------------------------------------------------------|
D|----------------------------------------------------------|
A|----------------------------------------------------------|
E|----------------------------------------------------------|


ORDER

Intro
Verse
Intro
Verse
Chorus
Intro
Verse
Chorus
Intro
Verse
Interlude + Solo 1
Intro + Solo 2
Verse

| /  slide up
| \  slide down
| h  hammer-on
| p  pull-off
| ~  vibrato
| +  harmonic
| x  Mute note
| fb full bend  
===============================================================================
Suggest correction
Creating personal tab
Creating personal tab
You can edit any tab online and save it as your Personal.

You can edit, replace or remove any tab part or add personal notes – all changes will be seen only by you.

Personal tabs can be accessed anytime from any device, even offline.
Learn more »
Give kudos to tab author, rate the tab!
1 2 3 4 5
comments
print report bad tab
guest
You may want to rate the tab now too:
select rating
Wanna post a correction for this tab? Suggest correction