Oops, an error
Loading. Please wait.

Sweetpro Louis Ck Diarrhea Song chords

382 views 6 this week
no commentswrite comment
1 2 3 4 5
3 more votes to show rating
add to favorites
×
Save as Personal and add changes to this tab that will be seen only by you. Learn more ›
×
You can save this tab as Personal to edit and correct it or add notes. All changes will be seen only by you. Learn more »
launch autoscroll
font size
0
reset
transpose
0
reset
simplify chords
display chords
guitar tuner
edit
Autoscroll
slow
fast
+/-
esc
set tempo
stop
Author
Strumming Is this strumming pattern correct? Yes No
0 bpm
1
2
3
4
5
6
7
8
9
10
11
12
13
14
15
16
Listen
It's the Diarrhea song we all love from that absurd arc on Louie Season 5(?).

Artist: Sweetpro / Louis CK / Giselle Bellas


[Intro]

The piano plays something like this during the intro
e|--8--8---------------------------------------------------------------------|
B|--10-10-----8--11-----8----8------------10---10-10---10------11p8----------|
G|------------9--9------9------9----------10---10-10---10-9------------------|
D|-------------------------------10~----------------------10-------10--------|
A|---------------------------------------------------------------------------|
E|---------------------------------------------------------------------------|

The bass plays something along the lines of 
e|---------------------------------------------------------------------------|
B|---------------------------------------------------------------------------|
G|---------------------------------------------------------------------------|
D|--------7----7----------------------7----7---------------------------------|
A|--8----8------------7---10---8----8----------------------------------------|
E|--------------8----8----------------------8--------------------------------|


[Chorus]

F                        F7               C    
I dream of little monsters, crawling up my leg
C                        C7               F
I fear they'll come again, if I go to bed
F           F7             A#             A#m     
I wish that something else would be in my dreams
F                   C                C7             F
But here come those little monsters, crawling up my leg

F                                       C
I dream of dying babies and why do they smile
C                                              Am   A#
I hate those dying babies, why don't they just die
A#            A#m   F            F7
Their smiling faces give me diarrhea
C              (C7)                     F
Please die you dying babies, in my diarrhea
   F          F7         A#         A#m  (HOLD)   
My dreams, my dreams, my dreams


[Verse 2]

                  F       C  
Please shit on my dreams
C                 F       C              
Please shit on my dreams
C                 F       C
Please shit on my dreams
C                 F (vigorous but not loud, kinda messy strum) C (once)  F F F   
Please shit on my dreeeeeeeeeeeeeeeeeeeeeeeeeeeeeeeeeeeeeeeams


I play the chords like so

F   x81010108
C   81010988 (I kinda just play the middle four strings, half assing the bass C note with my thumb, but nah)
A#  688766
A#m 688666
Am  577555



************************************

| p  Pull-off
| ~  Vibrato

************************************

            
            
Suggest correction
Creating personal tab
Creating personal tab
You can edit any tab online and save it as your Personal.

You can edit, replace or remove any tab part or add personal notes – all changes will be seen only by you.

Personal tabs can be accessed anytime from any device, even offline.
Learn more »
Give kudos to tab author, rate the tab!
1 2 3 4 5
comments
print report bad tab
guest
You may want to rate the tab now too:
select rating
Wanna post a correction for this tab? Suggest correction