Oops, an error
Loading. Please wait.

Sylar - Soul Addiction tab

40 views 9 this week
no commentswrite comment
1 2 3 4 5
3 more votes to show rating
add to favorites
×
Save as Personal and add changes to this tab that will be seen only by you. Learn more ›
×
You can save this tab as Personal to edit and correct it or add notes. All changes will be seen only by you. Learn more »
launch autoscroll
font size
0
reset
how to read this tab
guitar tuner
edit
Autoscroll
slow
fast
+/-
esc
set tempo
stop
[Intro/Main Riff]

B |----------------------------------------|------------------------------------------------|
F#|----------------------------------------|------------------------------------------------|
D |----------------------------------------|------------------------------------------------|
A |4----5---2---4-4-4-PM-2-2-2-------------|4----5---2---4-4-4-PM-2-2-2---------------------|
E |4----5---2---4-4-4-PM-2-2-2-------------|4----5---2---4-4-4-PM-2-2-2---------------------|
A |4----5---2---4-4-4-PM-2-2-2----2-2-2-0--|4----5---2---4-4-4-PM-2-2-2----0-0-0-0-0-h2-2--2|
 
B |----------------------------------------|----------------------------------------|
F#|----------------------------------------|----------------------------------------|
D |----------------------------------------|----------------------------------------|
A |4----5---2---4-4-4-PM-2-2-2-------------|4----5---2---4-4-4-PM-2-2-2-------------|
E |4----5---2---4-4-4-PM-2-2-2-------------|4----5---2---4-4-4-PM-2-2-2-------------|
A |4----5---2---4-4-4-PM-2-2-2----2-2-2-0--|4----5---2---4-4-4-PM-2-2-2-------------|


[Verse 1]

B |---------------0--------------|---------------0--------------|
F#|-----------2-----------2------|-----------2-----------2------|
D |-------4----------------------|-------4----------------------|
A |------------------------------|------------------------------|
E |------------------------------|------------------------------|
A |4--4--------------------------|0--0--------------------------|

B |---------------0--------------|---------------0--------------|
F#|-----------2-----------2------|-----------2-----------2------|
D |-------4----------------------|-------4----------------------|
A |------------------------------|------------------------------|
E |------------------------------|------------------------------|
A |4--4--------------------------|0--0--------------------------|


[Pre-Chorus 1]

B |----------------------------|----------------------------|
F#|----------------------------|----------------------------|
D |----------------------------|----------------------------|
A |----------------------------|----------------------------|
E |----------------------------|----------------------------|
A |4-4-4-7-7-7-2-2-2-2-7---7---|4-4-4-7-7-7-2-2-2-2-2-2-2---|


[Chorus 1]

B |--------------------------------|--------------------------------|
F#|--------------------------------|--------------------------------|  
D |--------------------------------|--------------------------------|
A |0-0-0-0-0---0-0-0-0-0-0-0---0-0-|0-0-0-0-0-0---------------------|
E |0-0-0-0-0---0-0-0-0-0-0-0---0-0-|0-0-0-0-0-0---------------------|
A |0-0-0-0-0---0-0-0-0-0-0-0---0-0-|0-0-0-0-0-0-2-------2---7-6-----|

B |------------------------------------|----------------------------------------|
B |------------------------------------|----------------------------------------|
D |------------------------14-14-14-14-|----------------13-13-13-13-14-14-14-14-|
A |4-4-4-4-4-4-4-4-4-4-4-4-------------|2-2-2-2-2-2-2-2-------------------------|
E |4-4-4-4-4-4-4-4-4-4-4-4-12-12-12-12-|2-2-2-2-2-2-2-2-11-11-11-11-12-12-12-12-|
A |4-4-4-4-4-4-4-4-4-4-4-4-------------|2-2-2-2-2-2-2-2-------------------------|

B |--------------------------------|--------------------------------|
F#|--------------------------------|--------------------------------|  
D |--------------------------------|--------------------------------|
A |0-0-0-0-0---0-0-0-0-0-0-0---0-0-|0-0-0-0-0-0---------------------|
E |0-0-0-0-0---0-0-0-0-0-0-0---0-0-|0-0-0-0-0-0---------------------|
A |0-0-0-0-0---0-0-0-0-0-0-0---0-0-|0-0-0-0-0-0-2-------2---7-6-----|

B |------------------------------------|----------------------------------------|
B |------------------------------------|----------------------------------------|
D |------------------------14-14-14-14-|----------------13-13-13-13-14-14-14-14-|
A |4-4-4-4-4-4-4-4-4-4-4-4-------------|2-2-2-2-2-2-2-2-------------------------|
E |4-4-4-4-4-4-4-4-4-4-4-4-12-12-12-12-|2-2-2-2-2-2-2-2-11-11-11-11-12-12-12-12-| 
A |4-4-4-4-4-4-4-4-4-4-4-4-------------|2-2-2-2-2-2-2-2-------------------------|

B |--------------------------------|--------------------------------|
F#|--------------------------------|--------------------------------|  
D |--------------------------------|--------------------------------|
A |0-0-0-0-0---0-0-0-0-0-0-0---0-0-|0-0-0-0-0-0-0-0-2-2-2-2-2-------|
E |0-0-0-0-0---0-0-0-0-0-0-0---0-0-|0-0-0-0-0-0-0-0-2-2-2-2-2-------|
A |0-0-0-0-0---0-0-0-0-0-0-0---0-0-|0-0-0-0-0-0-0-0-2-2-2-2-2-------|


[Main Riff]
 
B |----------------------------------------|----------------------------------------|
F#|----------------------------------------|----------------------------------------|
D |----------------------------------------|----------------------------------------|
A |4----5---2---4-4-4-PM-2-2-2-------------|4----5---2---4-4-4-PM-2-2-2-------------|
E |4----5---2---4-4-4-PM-2-2-2-------------|4----5---2---4-4-4-PM-2-2-2-------------|
A |4----5---2---4-4-4-PM-2-2-2----2-2-2-0--|4----5---2---4-4-4-PM-2-2-2----2-2-2-0--|


[Verse 2]

B |---------------0--------------|---------------0--------------|
F#|-----------2-----------2------|-----------2-----------2------|
D |-------4----------------------|-------4----------------------|
A |------------------------------|------------------------------|
E |------------------------------|------------------------------|
A |4--4--------------------------|0--0--------------------------|

B |---------------0--------------|---------------0--------------|
F#|-----------2-----------2------|-----------2-----------2------|
D |-------4----------------------|-------4----------------------|
A |------------------------------|------------------------------|
E |------------------------------|------------------------------|
A |4--4--------------------------|0--0--------------------------|


[Pre-Chorus 2] 

B |2---------------------------|2---------------------------|
F#|3------------2--------------|3------------2--------------|
D |----------------------------|----------------------------|
A |----------------------------|----------------------------|
E |----------------------------|2---------------------------|
A |0---------------------------|----------------------------|


[Chorus 2]

B |--------------------------------|--------------------------------|
F#|--------------------------------|--------------------------------|  
D |--------------------------------|--------------------------------|
A |0-0-0-0-0---0-0-0-0-0-0-0---0-0-|0-0-0-0-0-0---------------------|
E |0-0-0-0-0---0-0-0-0-0-0-0---0-0-|0-0-0-0-0-0---------------------|
A |0-0-0-0-0---0-0-0-0-0-0-0---0-0-|0-0-0-0-0-0-2-------2---7-6-----|

B |------------------------------------|----------------------------------------|
B |------------------------------------|----------------------------------------|
D |------------------------14-14-14-14-|----------------13-13-13-13-14-14-14-14-|
A |4-4-4-4-4-4-4-4-4-4-4-4-------------|2-2-2-2-2-2-2-2-------------------------|
E |4-4-4-4-4-4-4-4-4-4-4-4-12-12-12-12-|2-2-2-2-2-2-2-2-11-11-11-11-12-12-12-12-|
A |4-4-4-4-4-4-4-4-4-4-4-4-------------|2-2-2-2-2-2-2-2-------------------------|

B |--------------------------------|--------------------------------|
F#|--------------------------------|--------------------------------|  
D |--------------------------------|--------------------------------|
A |0-0-0-0-0---0-0-0-0-0-0-0---0-0-|0-0-0-0-0-0---------------------|
E |0-0-0-0-0---0-0-0-0-0-0-0---0-0-|0-0-0-0-0-0---------------------|
A |0-0-0-0-0---0-0-0-0-0-0-0---0-0-|0-0-0-0-0-0-2-------2---7-6-----|

B |------------------------------------|----------------------------------------|
B |------------------------------------|----------------------------------------|
D |------------------------14-14-14-14-|----------------13-13-13-13-14-14-14-14-|
A |4-4-4-4-4-4-4-4-4-4-4-4-------------|2-2-2-2-2-2-2-2-------------------------|
E |4-4-4-4-4-4-4-4-4-4-4-4-12-12-12-12-|2-2-2-2-2-2-2-2-11-11-11-11-12-12-12-12-| 
A |4-4-4-4-4-4-4-4-4-4-4-4-------------|2-2-2-2-2-2-2-2-------------------------|

B |--------------------------------|--------------------------------|
F#|--------------------------------|--------------------------------|  
D |--------------------------------|--------------------------------|
A |0-0-0-0-0---0-0-0-0-0-0-0---0-0-|0-0-0-0-0-0-0-0-2-2-2-2-2-2-2-2-|
E |0-0-0-0-0---0-0-0-0-0-0-0---0-0-|0-0-0-0-0-0-0-0-2-2-2-2-2-2-2-2-|
A |0-0-0-0-0---0-0-0-0-0-0-0---0-0-|0-0-0-0-0-0-0-0-2-2-2-2-2-2-2-2-|


[Bridge]

B |------------------------|------------------------------------------|
F#|------------------------|------------------------------------------|
D |------------------------|------------------------------------------|
A |4-4-4-4---------4-------|2-2-2-2-x-x-x-x-2-2-2-2-x-x-x-------------|
E |4-4-4-4-----------------|2-2-2-2-x-x-x-x-2-2-2-2-x-x-x-------------|
A |4-4-4-4---0-4-5---5-4-0-|2-2-2-2-x-x-x-0-2-2-2-2-x-x-x-0---0-------|

B |------------------------|----------------------------------------|
F#|------------------------|----------------------------------------|
D |------------------------|----------------------------------------|
A |4-4-4-4---------4-------|2-2-2-2-x-x-x-x-2-2-2-2-x-x-x-x-2-2-2-2-|
E |4-4-4-4-----------------|2-2-2-2-x-x-x-x-2-2-2-2-x-x-x-x-2-2-2-2-|
A |4-4-4-4---0-4-5---5-4-0-|2-2-2-2-x-x-x-0-2-2-2-2-x-x-x-x-2-2-2-2-|

B |--------------------------------|--------------------------------|
F#|--------------------------------|--------------------------------|
D |--------------------------------|--------------------------------|
A |4-4---4---------4-4---4---------|4-----4-------------------------|
E |4-4---4-----4-5-4-4---4-----4-5-|4-----4-------------------------|
A |4-4---4---0-4-5-4-4---4---0-4-5-|4-----4---0-4-5-2-2-x-x-0-0-----|

B |--------------------------------|--------------------------------|
F#|--------------------------------|--------------------------------|
D |--------------------------------|--------------------------------|
A |4-4---4---------4-4---4---------|4-----4-------------------------|
E |4-4---4-----4-5-4-4---4-----4-5-|4-----4-------------------------|
A |4-4---4---0-4-5-4-4---4---0-4-5-|4-----4---0-4-5-2-2-x-x-2-2-2-2-|


[Pre-Chorus 3]

B |2---------------------------|2---------------------------|
F#|3------------2--------------|3------------2--------------|
D |----------------------------|----------------------------|
A |----------------------------|----------------------------|
E |----------------------------|2---------------------------|
A |0---------------------------|----------------------------|


[Chorus 3]

B |--------------------------------|--------------------------------|
F#|--------------------------------|--------------------------------|  
D |--------------------------------|--------------------------------|
A |0-0-0-0-0---0-0-0-0-0-0-0---0-0-|0-0-0-0-0-0---------------------|
E |0-0-0-0-0---0-0-0-0-0-0-0---0-0-|0-0-0-0-0-0---------------------|
A |0-0-0-0-0---0-0-0-0-0-0-0---0-0-|0-0-0-0-0-0-2-------2---7-6-----|

B |------------------------------------|----------------------------------------|
B |------------------------------------|----------------------------------------|
D |------------------------14-14-14-14-|----------------13-13-13-13-14-14-14-14-|
A |4-4-4-4-4-4-4-4-4-4-4-4-------------|2-2-2-2-2-2-2-2-------------------------|
E |4-4-4-4-4-4-4-4-4-4-4-4-12-12-12-12-|2-2-2-2-2-2-2-2-11-11-11-11-12-12-12-12-|
A |4-4-4-4-4-4-4-4-4-4-4-4-------------|2-2-2-2-2-2-2-2-------------------------|

B |--------------------------------|--------------------------------|
F#|--------------------------------|--------------------------------|  
D |--------------------------------|--------------------------------|
A |0-0-0-0-0---0-0-0-0-0-0-0---0-0-|0-0-0-0-0-0---------------------|
E |0-0-0-0-0---0-0-0-0-0-0-0---0-0-|0-0-0-0-0-0---------------------|
A |0-0-0-0-0---0-0-0-0-0-0-0---0-0-|0-0-0-0-0-0-2-------2---7-6-----|

B |------------------------------------|----------------------------------------|
B |------------------------------------|----------------------------------------|
D |------------------------14-14-14-14-|----------------13-13-13-13-14-14-14-14-|
A |4-4-4-4-4-4-4-4-4-4-4-4-------------|2-2-2-2-2-2-2-2-------------------------|
E |4-4-4-4-4-4-4-4-4-4-4-4-12-12-12-12-|2-2-2-2-2-2-2-2-11-11-11-11-12-12-12-12-| 
A |4-4-4-4-4-4-4-4-4-4-4-4-------------|2-2-2-2-2-2-2-2-------------------------|

B |--------------------------------|--------------------------------|
F#|--------------------------------|--------------------------------|  
D |--------------------------------|--------------------------------|
A |0-0-0-0-0---0-0-0-0-0-0-0---0-0-|0-0-0-0-0-0-0-0-2-2-2-2-2-2-2-2-|
E |0-0-0-0-0---0-0-0-0-0-0-0---0-0-|0-0-0-0-0-0-0-0-2-2-2-2-2-2-2-2-|
A |0-0-0-0-0---0-0-0-0-0-0-0---0-0-|0-0-0-0-0-0-0-0-2-2-2-2-2-2-2-2-|

 
[Outro]

B |---------------0--------------|---------------0--------------|---------------0--------------|
F#|-----------2-----------2------|-----------2-----------2------|-----------2-----------2------|
D |-------4----------------------|-------4----------------------|-------4----------------------|
A |------------------------------|------------------------------|------------------------------|
E |------------------------------|------------------------------|------------------------------|
A |0--0--------------------------|0--0--------------------------|0--0--------------------------|



************************************

| h  Hammer-on
| x  Dead note
 

************************************

            
            
Suggest correction
Creating personal tab
Creating personal tab
You can edit any tab online and save it as your Personal.

You can edit, replace or remove any tab part or add personal notes – all changes will be seen only by you.

Personal tabs can be accessed anytime from any device, even offline.
Learn more »
Give kudos to tab author, rate the tab!
1 2 3 4 5
comments
print report bad tab
guest
You may want to rate the tab now too:
select rating
Wanna post a correction for this tab? Suggest correction