Oops, an error
Loading. Please wait.

Takanon - Nankai Renai Difficult Love Tab

559 views 1 this week
no commentswrite comment
1 2 3 4 5
please rate
add to favorites
launch autoscroll
font size
0
reset
how to read this tab
guitar tuner
Autoscroll
slow
fast
+/-
esc
set tempo
stop
Help us to improve Ultimate-Guitar.com Take our survey!
×
Author
Song: Nankai Renai (Difficult Love)
Composed by Takanon, sang by Gumi (vocaloid)

Standard tuning

| /   slide up
| ~   Let it Ring
| x   Mute note
| *   Palm Mute
| b   Full Note Bend

My very first tab :) although not really mine, my friend taught me how to play it...

I'll try as hard as i can to define the length of the note
For example, 9- will be half the length of 9-- and double the length of 9.
Basically, - is a 1/8 note

INTRO
e|---------------------------    -----------------------------12-14-|
B|---------------------------    ------------------12--14--16-------|
G|-2/11---13---14---13---11-- x3 -2/11---13---14--------------------|
D|---------------------------    -----------------------------------|
A|---------------------------    -----------------------------------|
E|---------------------------    -----------------------------------|

  Strum REALLY FAST!
e|-16.16.16.16.14.14.14.14.12.12.12.12.14.14.14.14.| x2

                                          until here...
e|-16.16.16.16.14.14.14.14.12.12.12.12.14-14b--14--14b--14--|

e|-12-11-12-12-12--14--16--14--12--11--11-11-12-12-12--14--16--17--16--14--12-14---12~|
                                                                               ^

VERSE 1

Start at the same time as the last 14 of intro (the one with ^ under it)

e|---------------|---------------|---------------|---------------|
B|---------------|---------------|---------------|---------------|
G|-9--9-9--9-9-9-|-4--4-4--4-4-4-|-6--6-6--6-6-6-|-4--4-4--4-4-4-|   (1)
D|-9--9-9--9-9-9-|-4--4-4--4-4-4-|-6--6-6--6-6-6-|-4--4-4--4-4-4-|
A|-7--7-7--7-7-7-|-2--2-2--2-2-2-|-4--4-4--4-4-4-|-2--2-2--2-2-2-|
E|---------------|---------------|---------------|---------------|

e|---------------|---------------|---------------|----------------|
B|---------------|---------------|---------------|----------------|
G|-2--2-2--2-2-2-|-4--4-4--4-4-4-|-9--9-9--9-9-9-|-*-4-*-4--4-4-4-|   (2)
D|-2--2-2--2-2-2-|-4--4-4--4-4-4-|-9--9-9--9-9-9-|-*-4-*-4--4-4-4-|
A|-0--0-0--0-0-0-|-2--2-2--2-2-2-|-7--7-7--7-7-7-|-*-2-*-2--2-2-2-|
E|---------------|---------------|---------------|----------------|

Verse 1(1) again, but then...

e|---------------|---------------|---------------|---------------|
B|---------------|---------------|---------------|---------------|
G|-2--2-2--2-2-2-|-4--4-4--4-4-4-|-9--9-9--9-9-9-|-9--9-8--8-8-8-|   (3)
D|-2--2-2--2-2-2-|-4--4-4--4-4-4-|-9--9-9--9-9-9-|-9--9-9--9-9-9-|
A|-0--0-0--0-0-0-|-2--2-2--2-2-2-|-7--7-7--7-7-7-|-7--7-6--6-6-6-|
E|---------------|---------------|---------------|---------------|


PRE-CHORUS 1

e|----------------|----------------|----------------|----------------|
B|----------------|----------------|----------------|----------------|
G|-6--*-*-*-*-*-*-|-6--*-*-*-*-*-*-|----------------|----------------|   (1)
D|-6--*-*-*-*-*-*-|-6--*-*-*-*-*-*-|-6--*-*-*-*-*-*-|-6--*-*-*-*-*-*-|
A|-4--*-*-*-*-*-*-|-4--*-*-*-*-*-*-|-6--*-*-*-*-*-*-|-6--*-*-*-*-*-*-|
E|----------------|----------------|-4--*-*-*-*-*-*-|-4--*-*-*-*-*-*-|

e|----------------|----------------|----------------|---------------|
B|----------------|----------------|----------------|---------------|
G|----------------|----------------|-9--*-*-*-*-*-*-|-9--*-*-8--*-*-|   (2)
D|-7--*-*-*-*-*-*-|-9--*-*-*-*-*-*-|-9--*-*-*-*-*-*-|-9--*-*-9--*-*-|
A|-7--*-*-*-*-*-*-|-9--*-*-*-*-*-*-|-7--*-*-*-*-*-*-|-7--*-*-6--*-*-|
E|-5--*-*-*-*-*-*-|-7--*-*-*-*-*-*-|----------------|---------------|

Pre-Chorus (1) again, but then...

e|---------------|---------------|---------------|-----------------|
B|---------------|---------------|---------------|-----------------|
G|---------------|---------------|---------------|-*-4-4-4-*-4-4-4-|   (3)
D|-4--*-4--4-4-4-|-6--*-6--6-6-6-|-7--*-7--7-7-7-|-*-4-4-4-*-4-4-4-|
A|-4--*-4--4-4-4-|-6--*-6--6-6-6-|-7--*-7--7-7-7-|-*-2-2-2-*-2-2-2-|
E|-2--*-2--2-2-2-|-4--*-4--4-4-4-|-5--*-5--5-5-5-|-----------------|


CHORUS 1

e|---------------|---------------|---------------|---------------|
B|---------------|---------------|---------------|---------------|
G|---------------|-4--4-4--4-4-4-|-6--6-6--6-6-6-|-4--4-4--4-4-4-|
D|-2--2-2--2-2-2-|-4--4-4--4-4-4-|-6--6-6--6-6-6-|-4--4-4--4-4-4-|
A|-2--2-2--2-2-2-|-2--2-2--2-2-2-|-4--4-4--4-4-4-|-2--2-2--2-2-2-|
E|-0--0-0--0-0-0-|---------------|---------------|---------------|
                                                                     (1)
e|---------------|---------------|---------------|---------------|
B|---------------|---------------|---------------|---------------|
G|-2--2-2--2-2-2-|---------------|---------------|-4--4-4--4-4-4-|
D|-2--2-2--2-2-2-|-6--6-6--6-6-6-|-4--4-4--4-4-4-|-4--4-4--4-4-4-|
A|-0--0-0--0-0-0-|-6--6-6--6-6-6-|-4--4-4--4-4-4-|-2--2-2--2-2-2-|
E|---------------|-4--4-4--4-4-4-|-2--2-2--2-2-2-|---------------|

The second part of chorus is the same as verse 1 (1)+(2)


VERSE 2

e|----|----|----|----|----|----|----|----------------|
B|----|----|----|----|----|----|----|----------------|
G|----|-4~-|-6~-|-4~-|-2~-|-4~-|-9~-|-*-4-*-4--4-4-4-|
D|-2~-|-4~-|-6~-|-4~-|-2~-|-4~-|-9~-|-*-4-*-4--4-4-4-|
A|-2~-|-2~-|-4~-|-2~-|-0~-|-2~-|-7~-|-*-2-*-2--2-2-2-|
E|-0~-|----|----|----|----|----|----|----------------|

then verse 1 (2)

RIFF

e|-----------------------    ---------------------------------9--|
B|-----------------------    ------------------------9--10-12----|
G|-2/8---9---11---9---8-- x3 --------------8--9--11--------------|
D|-----------------------    -9--11-9--11------------------------|
A|-----------------------    ------------------------------------|
E|-----------------------    ------------------------------------|

e|-11---12---14---12---11-----------------------------|
B|-------------------------10/16---17---19---17---16--|

e|-------------------16------------------------------16--17--19---21~|
B|-10/16---17---19--------19--17--19-17--16--17--19------------------|

PRE-CHORUS 2

Same as pre-chorus 1, only unmute the muted
example:

e|----------------|         |---------------|
B|----------------|         |---------------|
G|-6--*-*-*-*-*-*-|   >>>   |-6--6-6--6-6-6-|
D|-6--*-*-*-*-*-*-|         |-6--6-6--6-6-6-|
A|-4--*-*-*-*-*-*-|         |-6--6-6--6-6-6-|
E|----------------|         |---------------|

(3) stays the same


CHORUS 2

Strum 4 1/8 notes, after that it's about the same as the chorus 1, but a step higher...
I'll write it anyway >.>

e|---------|
B|---------|
G|---------|
D|-x-x-x-x-|
A|-x-x-x-x-|
E|-x-x-x-x-|

e|---------------|---------------|---------------|---------------|
B|---------------|---------------|---------------|---------------|
G|---------------|-5--5-5--5-5-5-|-7--7-7--7-7-7-|-5--5-5--5-5-5-|
D|-3--3-3--3-3-3-|-5--5-5--5-5-5-|-7--7-7--7-7-7-|-5--5-5--5-5-5-|
A|-3--3-3--3-3-3-|-3--3-3--3-3-3-|-5--5-5--5-5-5-|-3--3-3--3-3-3-|
E|-1--1-1--1-1-1-|---------------|---------------|---------------|
 ^i mean this one^                                                   (1)
e|---------------|---------------|---------------|---------------|
B|---------------|---------------|---------------|---------------|
G|-3--3-3--3-3-3-|---------------|---------------|-5--5-5--5-5-5-|
D|-3--3-3--3-3-3-|-7--7-7--7-7-7-|-5--5-5--5-5-5-|-5--5-5--5-5-5-|
A|-1--1-1--1-1-1-|-7--7-7--7-7-7-|-5--5-5--5-5-5-|-3--3-3--3-3-3-|
E|---------------|-5--5-5--5-5-5-|-3--3-3--3-3-3-|---------------|

e|---------------------|---------------|---------------|---------------|
B|---------------------|---------------|---------------|---------------|
G|-10--10-10--10-10-10-|-5--5-5--5-5-5-|-7--7-7--7-7-7-|-5--5-5--5-5-5-|
D|-10--10-10--10-10-10-|-5--5-5--5-5-5-|-7--7-7--7-7-7-|-5--5-5--5-5-5-|
A|-8---8--8---8--8--8--|-3--3-3--3-3-3-|-5--5-5--5-5-5-|-3--3-3--3-3-3-|
E|---------------------|---------------|---------------|---------------|

e|---------------|---------------|---------------------|----------------|
B|---------------|---------------|---------------------|----------------|
G|-3--3-3--3-3-3-|-5--5-5--5-5-5-|-10--10-10--10-10-10-|-*-5-*-5--5-5-5-|
D|-3--3-3--3-3-3-|-5--5-5--5-5-5-|-10--10-10--10-10-10-|-*-5-*-5--5-5-5-|
A|-1--1-1--1-1-1-|-3--3-3--3-3-3-|-8---8--8---8--8--8--|-*-3-*-3--3-3-3-|
E|---------------|---------------|---------------------|----------------|

Repeat once more, but this time start with (8 10 10) instead of the subtly marked (1 3 3)


Pre-ending

e|----|----|----|----|
B|----|----|----|----|
G|-3~-|-5~-|----|----|
D|-3~-|-5~-|-3~-|-~~-|
A|-1~-|-3~-|-3~-|-~~-|
E|----|----|-1~-|-~~-|


ENDING

Almost the same (not same) as the intro and 1 step higher...

e|---------------------------    -----------------------------13-15-|
B|---------------------------    ------------------13--15--17-------|
G|-3/12---14---15---14---12-- x3 -3/12---14---15--------------------|
D|---------------------------    -----------------------------------|
A|---------------------------    -----------------------------------|
E|---------------------------    -----------------------------------|

  Strum REALLY FAST!
e|-17.17.17.17.15.15.15.15.13.13.13.13.15.15.15.15.| x2

                                          until here...
e|-17.17.17.17.15.15.15.15.13.13.13.13.15-15b--15--15b--15--|

e|-13-12-13-13-13--15--17--15--13--12--12-12-13-13-13--15--17--15--17-18---17~|
Suggest correction
What's this?
You can suggest a correction to this tab. Community and Mods will review your correction and vote to approve or reject it.
comments
We did not receive enough feedback on this tab! Please rate:
print report bad tab
1 2 3 4 5
guest
You may want to rate the tab now too:
select rating
Please do not post tabs as comments. Select "correction" instead!