Oops, an error
Loading. Please wait.

Tea Leigh Luke Reed - Color Theory Bass Tab

123 views 1 this week
no commentswrite comment
1 2 3 4 5
3 more votes to show rating
add to favorites
launch autoscroll
font size
0
reset
guitar tuner
Autoscroll
slow
fast
+/-
esc
set tempo
stop
Help us to improve Ultimate-Guitar.com Take our survey!
×
Author
Difficulty
Tea Leigh & Luke Reed
Color Theory


Tuning: Standard (EADG)



Intro

G|----------------------------------------------------------------|
D|----------------------------------------------------------------|
A|----------------------------------------------------------------|
E|5-5-5-5-5-5-5-5-7-7-7-7-7-7-7-7-5-5-5-5-5-5-5-5-7-7-7-7-7-7-7-7-|

Pre-Verse

G|--------------------------------------------------------------------------------|
D|--------------------------------------------------------------------------------|
A|12-12-12-12-12-12-11-11------9-----------12-12-12-12-12-12-11-11----------------|
E|------------------------9-12---7-7-7-7-7-------------------------7-7-7-7-7-7-7-7|

G|------------------------------------------------------------------------|
D|------------------------------------------------------------------------|
A|12-12-12-12-12-12-11-11------9-------------------7-7-7-7----------------|
E|------------------------9-12---7-7-7-7-7-5-5-5-5---------7-7-7-7-7-7-7-7|

Verse

G|-----------------------------------------------------------------------|
D|-----------------------------------------------------------------------|
A|12-12-12-12-11-11-11-11-------------------------7-7-7-7----------------|
E|------------------------7-7-7-7-7-7-7-7-5-5-5-5---------7-7-7-7-7-7-7-7|

G|-----------------------------------------------------------------------|
D|-----------------------------------------------------------------------|
A|12-12-12-12-11-11-11-11-------------------------7-7-7-7-------------7-9|
E|------------------------7-7-7-7-7-7-7-7-5-5-5-5---------7-7-7-7-7-9----|


G|-----------------------------------------------------------------------|
D|-----------------------------------------------------------------------|
A|12-12-12-12-11-11-11-11-------------------------7-7-7-7----------------| x2
E|------------------------7-7-7-7-7-7-7-7-5-5-5-5---------7-7-7-7-7-7-7-7|

Pre-Verse

Verse

Bridge

G|---------------------------------------------------------------|
D|---------------------------------------------------------------|
A|---------------------------------------------------------------|
E|5-5-5-5-5-5-5-5-5-5-5-5-5-5-5-5-5-5-5-5-5-5-5-5-5-5-5-5-5-5-5-5|

G|---------------------------------------------------------------|
D|---------------------------------------------------------------|
A|7-7-7-7-7-7-7-7-7-7-7-7-7-7-7-7--------------------------------|   x2
E|--------------------------------7-7-7-7-7-7-7-7-7-7-7-7-7-7-7-7|

G|---------------------------------------------------------------|
D|---------------------------------------------------------------|
A|----------------7-7-7-7-7-7-7-7--------------------------------|   x2
E|5-5-5-5-5-5-5-5-----------------7-7-7-7-7-7-7-7-7-7-7-7-7-7-7-7|

Pre-Verse

Verse

Pre-Verse (fades out)



Enjoy!
Suggest correction
Give kudos to tab author, rate the tab!
1 2 3 4 5
comments
print report bad tab
guest
You may want to rate the tab now too:
select rating
Wanna post a correction for this tab? Suggest correction