Oops, an error
Loading. Please wait.

Thb - Finally Summer Bass Tab

version 1
version 1

Whole song

Interactive

20 views 1 this week
no commentswrite comment
1 2 3 4 5
please rate
add to favorites
launch autoscroll
font size
0
reset
guitar tuner
Autoscroll
slow
fast
+/-
esc
set tempo
stop
Help us to improve Ultimate-Guitar.com Take our survey!
×
Author
Difficulty
novice
  Finally summer                                  


                                                                             THB
Bass



     Q       E  E     E  E     W                   Q       E  E     E  E   
G||-------|--------|--------|-------------------|-------|--------|--------|
D||--7----|--5--5--|--3--3--|--5----------------|--7----|--5--5--|--3--3--|
A||-------|--------|--------|-------------------|-------|--------|--------|
E||-------|--------|--------|-------------------|-------|--------|--------|


                        Vers 1                                                  
  W                     E      E  E  E  E  E  E  E     E  E  E  E  E  E  E  E   
-------------------||-------------------------------|--------------------------|
-------------------||*------------------------------|--------------------------|
--5----------------||*--1------1--1--1--1--1--1--1--|--3--3--3--3--3--3--3--3--|
-------------------||-------------------------------|--------------------------|


                                                          Omkvæd           
                             3                                             
  E  E  E  E  E  E  E  E     Q    Q    Q    E  E  E   3x  Q         E  E   
--------------------------|---------------------------||---------|--------|
--------------------------|--------------------------*||--7------|--5--5--|
--1--1--1--1--1--1--1--1--|--5----5----3----3--3--3--*||---------|--------|
--------------------------|---------------------------||---------|--------|


  E  E     W                   Q       E  E     E  E     W                 
--------|-------------------|-------|--------|--------|-------------------|
--3--3--|--5----------------|--7----|--5--5--|--3--3--|-------------------|
--------|-------------------|-------|--------|--------|--5----------------|
--------|-------------------|-------|--------|--------|-------------------|


    Vers 2                                                  
    E      E  E  E  E  E  E  E     E  E  E  E  E  E  E  E   
|-------------------------------|--------------------------|
|*------------------------------|--------------------------|
|*--1------1--1--1--1--1--1--1--|--3--3--3--3--3--3--3--3--|
|-------------------------------|--------------------------|


                                                          Omkvæd           
                             3                                             
  E  E  E  E  E  E  E  E     Q    Q    Q    E  E  E   3x  Q         E  E   
--------------------------|---------------------------||---------|--------|
--------------------------|--------------------------*||--7------|--5--5--|
--1--1--1--1--1--1--1--1--|--5----5----3----3--3--3--*||---------|--------|
--------------------------|---------------------------||---------|--------|


  E  E     W                   Q       E  E     E  E     W                 
--------|-------------------|-------|--------|--------|-------------------|
--3--3--|--5----------------|--7----|--5--5--|--3--3--|-------------------|
--------|-------------------|-------|--------|--------|--5----------------|
--------|-------------------|-------|--------|--------|-------------------|


  Guitar solo                                                  
  E           E  E  E  E  E  E  E     E  E  E  E  E  E  E  E   
-----------------------------------|--------------------------|
-----------------------------------|--------------------------|
--1-----------1--1--1--1--1--1--1--|--3--3--3--3--3--3--3--3--|
-----------------------------------|--------------------------|


  E  E  E  E  E  E  E  E     E  E  E  E  E  E  E  E   
--------------------------|--------------------------|
--------------------------|--------------------------|
--1--1--1--1--1--1--1--1--|--3--3--3--3--3--3--3--3--|
--------------------------|--------------------------|


  E  E  E  E  E  E  E  E     E  E  E  E  E  E  E  E   
--------------------------|--------------------------|
--------------------------|--------------------------|
--1--1--1--1--1--1--1--1--|--3--3--3--3--3--3--3--3--|
--------------------------|--------------------------|


  E  E  E  E  E  E  E  E     E  E  E  E  E  E  E  E   
--------------------------|--------------------------|
--------------------------|--------------------------|
--1--1--1--1--1--1--1--1--|--3--3--3--3--3--3--3--3--|
--------------------------|--------------------------|


                             Omkvæd                                        
  E  E  E  E  E  E  E  E     Q         E  E     E  E     W                 
--------------------------|---------|--------|--------|-------------------|
--------------------------|--7------|--5--5--|--3--3--|--5----------------|
--3--3--3--3--3--3--3--3--|---------|--------|--------|-------------------|
--------------------------|---------|--------|--------|-------------------|


  Q       E  E     E  E     W                 
-------|--------|--------|-------------------|
--7----|--5--5--|--3--3--|-------------------|
-------|--------|--------|--5----------------|
-------|--------|--------|-------------------|


  Mellemspil                                                  
  E          E  E  E  E  E  E  E     E  E  E  E  E  E  E  E   
----------------------------------|--------------------------|
--7----------7--7--7--7--7--7--7--|--5--5--5--5--5--5--5--5--|
----------------------------------|--------------------------|
----------------------------------|--------------------------|


  E  E  E  E  E  E  E  E     E  E  E  E  E  E  E  E   
--------------------------|--------------------------|
--3--3--3--3--3--3--3--3--|--5--5--5--5--5--5--5--5--|
--------------------------|--------------------------|
--------------------------|--------------------------|


  E  E  E  E  E  E  E  E     E  E  E  E  E  E  E  E   
--------------------------|--------------------------|
--7--7--7--7--7--7--7--7--|--5--5--5--5--5--5--5--5--|
--------------------------|--------------------------|
--------------------------|--------------------------|


  E  E  E  E  E  E  E  E     W                   E  E  E  E  E  E  E  E   
--------------------------|-------------------|--------------------------|
--3--3--3--3--3--3--3--3--|-------------------|--7--7--7--7--7--7--7--7--|
--------------------------|--5----------------|--------------------------|
--------------------------|-------------------|--------------------------|


  E  E  E  E  E  E  E  E     E  E  E  E  E  E  E  E   
--------------------------|--------------------------|
--5--5--5--5--5--5--5--5--|--3--3--3--3--3--3--3--3--|
--------------------------|--------------------------|
--------------------------|--------------------------|


  E  E  E  E  E  E  E  E     E  E  E  E  E  E  E  E   
--------------------------|--------------------------|
--5--5--5--5--5--5--5--5--|--7--7--7--7--7--7--7--7--|
--------------------------|--------------------------|
--------------------------|--------------------------|


  E  E  E  E  E  E  E  E     E  E  E  E  E  E  E  E     W                 
--------------------------|--------------------------|-------------------|
--5--5--5--5--5--5--5--5--|--3--3--3--3--3--3--3--3--|-------------------|
--------------------------|--------------------------|--5----------------|
--------------------------|--------------------------|-------------------|


  Omkvæd                                                                  
  Q         E  E     E  E     W                   Q       E  E     E  E   
---------|--------|--------|-------------------|-------|--------|--------|
--7------|--5--5--|--3--3--|--5----------------|--7----|--5--5--|--3--3--|
---------|--------|--------|-------------------|-------|--------|--------|
---------|--------|--------|-------------------|-------|--------|--------|


                          Omkvæd                                                
  E  Q    E  Q    Q       Q         E  E     E  E     W                   Q     
-----------------------|---------|--------|--------|-------------------|-------|
-----------------------|--7------|--5--5--|--3--3--|--5----------------|--7----|
--5--5----5--5----5----|---------|--------|--------|-------------------|-------|
-----------------------|---------|--------|--------|-------------------|-------|


  E  E     E  E     W                   W                   Q       
--------|--------|-------------------|-------------------|--------||
--5--5--|--3--3--|-------------------|-------------------|--------||
--------|--------|--5----------------|-------------------|--------||
--------|--------|-------------------|--5----------------|--5\----||




Duration Legend
---------------
W - whole
H - half
Q - quarter
E - 8th
S - 16th
T - 32nd
X - 64th
. - note dotted
|-n-|  - n-tuplets


Tablature Legend
----------------
L - tied note
x - dead note
g - grace note
(n) - ghost note
> - accentuded note
NH - natural harmonic
AH - artificial harmonic
TH - tapped harmonic
SH - semi harmonic
PH - pitch harmonic
h - hammer on
p - pull off
b - bend
br - bendRelease
pb - preBend
pbr - preBendRelease
brb - bendReleaseBend
\n/ - tremolo bar dip
\n - tremolo bar dive
-/n - tremolo bar Release up
/n\ - tremolo bar inverted dip
/n - tremolo bar return
-\n - tremolo bar Release down
S - shift slide
s - legato slide
/ -  slide into from below or out of upwards
\ -  slide into from above or out of downwards
~ - vibrato
W - wide vibrato
tr - trill
TP - tremolo picking
T - tapping
S - slap
P - pop
< - fade in
^ - brush up
v - brush down
Suggest correction
What's this?
You can suggest a correction to this tab. Community and Mods will review your correction and vote to approve or reject it.
comments
We did not receive enough feedback on this tab! Please rate:
print report bad tab
1 2 3 4 5
guest
You may want to rate the tab now too:
select rating
Please do not post tabs as comments. Select "correction" instead!