Oops, an error
Loading. Please wait.

The 11Th Commandment - Powersurge Tab

151 views 1 this week
no commentswrite comment
1 2 3 4 5
please rate
add to favorites
launch autoscroll
font size
0
reset
how to read this tab
guitar tuner
Autoscroll
slow
fast
+/-
esc
set tempo
stop
Help us to improve Ultimate-Guitar.com Take our survey!
×
Author
Difficulty
novice
Band-The 11th Commandment
Song-Powersurge
Yes, this needs distortion.



Rhythm(1)-

         D    A  A    D D  D D   A  A
E|-------------------------------------------|Repeat 2x
B|-------3----2--2----3-3--3-3---2--2--------|
G|-------2----2--2----2-2--2-2---2--2--------|
D|-------0----2--2----0-0--0-0---2--2--------|
A|------------0--0---------------0--0--------|
E|-------------------------------------------|


Chorus-
Let the notes ring.
       D      A          D      A
E|-----------------------------------------|
B|-----3------2----------3------2----------|
G|-----2------2----------2------2----------|
D|-----0------2----------0------2----------|
A|------------0-----------------0----------|
E|-----------------------------------------|



Lead/Solo:
Play Random Lead That Goes Along With Song


Rhythm:

         D    A  A    D D  D D   A  A   
E|------------------------------------------|Repeat 2x
B|-------3----2--2----3-3--3-3---2--2-------|
G|-------2----2--2----2-2--2-2---2--2-------|
D|-------0----2--2----0-0--0-0---2--2-------|
A|------------0--0---------------0--0-------|
E|------------------------------------------|



Rhythm(3)-                       Lead-
Don't let these notes ring.      Play same Time as Rhythm(3)
      D  D   A  A
E|------------------|Repeat 3x   E|-----------------------------------|
B|----3--3----------|            B|------12b--12--10---10-10----------|
G|----2--2---2--2---|            G|-----------------------------------|  
D|-----------2--2---|            D|-----------------------------------|  
A|------------------|            A|-----------------------------------|  
E|------------------|            E|-----------------------------------| 


Rhythm(2)-


E|--------------------x----||
B|-----3------2-------x----||
G|-----2------2-------x----||
D|-----0------2-------x----||
A|-----0------0-------x----||
E|-----0------0-------x----||

This was my bands third song!




Suggest correction
Give kudos to tab author, rate the tab!
1 2 3 4 5
comments
print report bad tab
guest
You may want to rate the tab now too:
select rating
Wanna post a correction for this tab? Suggest correction