Oops, an error
Loading. Please wait.

The Alexandria Machine - Quarantine The Source Bass Tab

32 views 1 this week
no commentswrite comment
1 2 3 4 5
3 more votes to show rating
add to favorites
launch autoscroll
font size
0
reset
guitar tuner
Autoscroll
slow
fast
+/-
esc
set tempo
stop
Help us to improve Ultimate-Guitar.com Take our survey!
×
  Intro: Play 4x
G|---------------------------|
D|---------------------------|
A|-----------555-------------|
E|-1-11--111-----666-666-111-|


  Play 4x
G|------|-----|---|----|-----|
D|------|-----|---|----|-----|
A|-5555-|-555-|-5-|-55-|-555-|
E|------|-----|---|----|-----|


  Play 2x
G|------------|
D|------------|
A|------------|
E|-333--3-3-3-|


G|------------------------------------|
D|------------------------------------|
A|------------------------------------|
E|-7777-7\--7777-7\--3333-3\--3333-3\-|


  Chorus: Play 4x
G|---------------------|
D|---------------------|
A|-------8888-5555-8-8-|
E|-77777---------------|


  Play 3x      Play after every 3rd time
G|------------|-------------------------|
D|------------|-------------------------|
A|-5555--888--|--10-10-10-10-10-10------|
E|------------|-------------------------|
  [Play the whole set together 4 times]


  Bridge:
G|--------------------------|
D|--------------------------|
A|------------------------5-|
E|-5555-55--66--1111--3-1---|


  Intro: Play 4x
G|---------------------------|
D|---------------------------|
A|-----------555-------------|
E|-1-11--111-----666-666-111-|


G|------------------------------------|
D|------------------------------------|
A|------------------------------------|
E|-7777-7\--7777-7\--3333-3\--3333-3\-|


  Chorus: Play 4x
G|---------------------|
D|---------------------|
A|-------8888-5555-8-8-|
E|-77777---------------|


  Ending:  Play 3x
G|---------------|---------------|
D|---------------|---------------|
A|---------------|---------------|
E|-7777---7--777-|--3-333--3-333-|

G|-------------------------------|
D|--9---11---12---14----14-14-14-|
A|-///--///--///--///------------|
E|-------------------------------|

[For the ending play 9 for 2 beats, 11 for 2 beats, 12 for 2 beats, and 14 for 12 beats, 
fast as possible. ]
Suggest correction
Give kudos to tab author, rate the tab!
1 2 3 4 5
comments
print report bad tab
guest
You may want to rate the tab now too:
select rating
Wanna post a correction for this tab? Suggest correction