Oops, an error
Loading. Please wait.

The Amazing Broken Man - New Year Son Tab

3,903 views 18 this week
1 commentread comment
1 2 3 4 5
x 8
add to favorites
launch autoscroll
font size
0
reset
how to read this tab
guitar tuner
Autoscroll
slow
fast
+/-
esc
set tempo
stop
Help us to improve Ultimate-Guitar.com Take our survey!
×
Author
Difficulty
intermediate
Okay so it's not the whole song but you prettymuch get the whole gist of it, and even if 
it's not 100% perfect it's fairly close :) This song is so lovely, I hope you enjoy!



Intro
------------------------------------------------------------------------------|
------------------------------------------------------------------------------|
--4------4---7-------7---4----------7----------11-11--2--7--------------------|
-----0-----------0----------0---0------0---0------0---------0---0-----0---0---|
------------------------------------------------------------------------------|
--3-----3----7------7----3-----3----7-----7----10-----3--7-----7---7-----7----|

x3
------------------------------------------------------------------------------|
------------------------------------------------------------------------------|
--4------4---7-------7---4----------7----------11-11--2--7--------------------|
-----0-----------0----------0---0------0---0------0---------0---0-----0---0---|
------------------------------------------------------------------------------|
--3-----3----7------7----3-----3----7-----7----10-----3--7-----7---7-----7----|

prechorus
----------------------------------------------------------------------------------------------|
----------------------------------------------------------------------------------------------|
--4------4---7-------7---4----------7----------11-11-/2--7---------11-11-2--7-----------------|
-----0-----------0----------0---0------0---0------0---------0---0-----0--------0---0-----0--0-|
----------------------------------------------------------------------------------------------|
--3-----3----7------7----3-----3----7-----7----10-----3--7-----7---10----3--7-----7----7---7--|

chorus
-----------------------------------------------------------------------|
-----------------------------------------------------------------------|
--6-----------4----------7-----------11-11--2--7-----------------------|
-----7-4---7-----0----0------0----0-----0---------0----0-----0----0----|
-----------------------------------------------------------------------|
--5-----------3-----3----7------7----10-----3--7-----7----7-----7------|


--------------------------------------------------------------------|
--------------------------------------------------------------------|
--6-----------4----------7-----------11-11--2--7----------9---------|
-----7-4---7-----0----0------0----0-----0---------0----0-----0----0-|
--------------------------------------------------------------------|
--5-----------3-----3----7------7----10-----3--7-----7----9-----9---|


------------------------------------------------------------------------------------------|
------------------------------------------------------------------------------------------|
--11-11--2--4---------7---------9----------11-11--2--4----------7---------6---------------|
-----0---------0---0-----0---0-----0----0-----0---------0---0------0---0------0----0------|
------------------------------------------------------------------------------------------|
--10-----3--3----3----7----7----9-----9----10-----3--3----3-----7----7----7------7--------|
Suggest correction
comments
print report bad tab
1 comment total.
0 reply
johan.fredlund. 16 Jul 13, 2015 10:03 AM

Where do you got the capo?

Good job on the tab!

guest
You may want to rate the tab now too:
select rating
Wanna post a correction for this tab? Suggest correction