Oops, an error
Loading. Please wait.

The Anthems - Suffer Tab

257 views 1 this week
no commentswrite comment
1 2 3 4 5
please rate
add to favorites
launch autoscroll
font size
0
reset
how to read this tab
guitar tuner
Autoscroll
slow
fast
+/-
esc
set tempo
stop
Help us to improve Ultimate-Guitar.com Take our survey!
×
Author
Tuning
D# G# C# F# A# D#
-------------------------------------------------------------------------------
                             The Anthems - Suffer
-------------------------------------------------------------------------------
Tabbed by: The Anthems
Email: myspace.com/theanthems

Tuning: Eb (drop D tuning)


Intro Riff - Play 2X

      dm                                                              F
eb|-------------------------------------------------------------------------------|
Bb|-------------------------------------------------------------------------------|
Gb|-------------------------------------------------------------------------------|
Db|-----------3-------2-------3-------5-------3-------2-------3---------------7---|
Ab|---------------0-------0-------0-------0-------0-------0-------0-------3-------|
Db|---0---0-----------------------------------------------------------3-----------|
      x   x       x       x       x       x       x       x       x   x   x    

                                                          C
eb|-------------------------------------------------------------------------------|
Bb|-------------------------------------------------------------------------------|
Gb|-------------------------------------------------------------------------------|
Db|-------5-------7-------8-------7-------5-------7---------------5-------3-------|
Ab|---3-------3-------3-------3-------3-------3-------3---3---3-------3-------3---|
Db|-------------------------------------------------------------------------------|
      x       x       x       x       x       x       x   x   x       x       x

                                              dm
eb|-------------------------------------------------------------------------------|
Bb|-------------------------------------------------------------------------------|
Gb|-------------------------------------------------------------------------------|
Db|---2-------3-------2-------0-------2---------------3-------2-------3-----------|
Ab|-------3-------3-------3-------3-------3---------------0-------0-------0-------|
Db|-------------------------------------------0---0---------------------------0---|
          x       x       x       x       x   x   x       x       x       x   x


eb|-------------------------------------------------------------------------------|
Bb|-------------------------------------------------------------------------------|
Gb|-------------------------------------------------------------------------------|
Db|-------3-------2-------0-------------------------------------------------------|
Ab|-----------0-------0-------0---------------------------------------------------|
Db|---0---------------------------------------------------------------------------|
      x       x       x       x   


Verse Riff

      dm                                                              F   
eb|-------------------------------------------------------------------------------|
Bb|-------------------------------------------------------------------------------|
Gb|-------------------------------------------------------------------------------|
Db|-------------------------------------------------------------------3-----------|
Ab|---3-h-5---5---5---5---5---5---5---5---5---5---5---5---3---3---3-------3-------|
Db|---------------------------------------------------------------------------3---|
              x   x   x   x   x   x   x   x   x   x   x   x   x   x   

                                                      C
eb|-------------------------------------------------------------------------------|
Bb|-------------------------------------------------------------------------------|
Gb|-------------------------------------------------------------------------------|
Db|-------------------------------------------------------------------------------|
Ab|---------------------------------------------------0-h-3---3---3---3---3---3---|
Db|---3---3---3---3---3---3---3---3---3---3---3---3-------------------------------|
      x   x   x   x   x   x   x   x   x   x   x   x           x   x   x   x   x 

                                          dm
eb|-------------------------------------------------------------------------------|
Bb|-------------------------------------------------------------------------------|
Gb|-------------------------------------------------------------------------------|
Db|---------------------------------------0---------------------------------------|
Ab|---3---3---3---3---3---3---0---0---0-------0-----------------------------------|
Db|-----------------------------------------------0---0---0---0---0---0---0---0---|
      x   x   x   x   x   x   x   x   x               x   x   x   x   x   x   x


eb|-------------------------------------------------------------------------------|
Bb|-------------------------------------------------------------------------------|
Gb|-------------------------------------------------------------------------------|
Db|-------------------------------------------------------------------------------|
Ab|-------------------------------------------------------------------------------|
Db|---0---0---0---0---0---0---0---------------------------------------------------|
      x   x   x   x   x   x   x 


Pre-Chorus Riff - Guitar 1

      dm                                                               Bb  C 
eb|-------------------------------------------------------------------------------|
Bb|-------------------------------------------------------------------------------|
Gb|-------------------------------------------------------------------------------|
Db|-------------------------------------------------------------------------------|
Ab|---3-h-5---0---0---5-h-7---0---0---7-h-8---0---0---8-h-10---0---0---8---3---3--|
Db|-------------------------------------------------------------------------------|
              x   x           x   x           x   x            x   x 

      dm          Bb  C       A      (#)      A
eb|-------------------------------------------------------------------------------|
Bb|-------------------------------------------------------------------------------|
Gb|-------------------------------------------------------------------------------|
Db|-------------------------------------------------------------------------------|
Ab|---3-h-5-------8---3---3---0---0---1---1---0-----------------------------------|
Db|-------------------------------------------------------------------------------|
              x


Pre-Chorus Riff - Guitar 2
     
      Bb      C              dm            Bb      C         A      (#)      A
eb|-------------------------------------------------------------------------------|
Bb|-------------------------------------------------------------------------------|
Gb|---12/14---12---12-h-14---12\10---------12/14---12---12---12/14----------------|
Db|----------------------------------12\------------------------------------------|
Ab|-------------------------------------------------------------------------------|
Db|-------------------------------------------------------------------------------|
      (bend)                               (bend)


Bridge Harmonics

      dm                                                          C
eb|-------------------------------------------------------------------------------|
Bb|---------------7---------------7---------------7---------------------------7---|
Gb|-------7---7-------7---7---7-------7---7---7-------7---7---7-------7---7-------|
Db|-------------------------------------------------------------------------------|
Ab|-------------------------------------------------------------------------------|
Db|-------------------------------------------------------------------------------|
          +   +   +   +   +   +   +   +   +   +   +   +   +   +       +   +   +
          x   x   x   x   x   x   x   x   x   x   x   x   x   x       x   x   x


eb|-------------------------------------------------------------------------------|
Bb|---------------7---------------7-----------------------------------------------|
Gb|---7---7---7-------7---7---7-------7---7---7-----------------------------------|
Db|-------------------------------------------------------------------------------|
Ab|-------------------------------------------------------------------------------|
Db|-------------------------------------------------------------------------------|
      +   +   +   +   +   +   +   +   +   +   +
      x   x   x   x   x   x   x   x   x   x   x


Outro Riff - Play 2x

      dm   F                   C                        Bb   C   A   C
eb|-------------------------------------------------------------------------------|
Bb|---15--------------------------------------------------------------------------|
Gb|--------14-------------12---12--------12---12-h-14-----------------------------|
Db|-------------12---15-------------15------------------12------------------------|
Ab|-------------------------------------------------------------------------------|
Db|-------------------------------------------------------------------------------|


| /  slide up
| \  slide down
| h  hammer-on
| p  pull-off
| ~  vibrato
| +  harmonic
| x  Mute note
===============================================================================
Suggest correction
Give kudos to tab author, rate the tab!
1 2 3 4 5
comments
print report bad tab
guest
You may want to rate the tab now too:
select rating
Please do not post tabs as comments. Select "correction" instead!