Oops, an error
Loading. Please wait.

The Apathy Eulogy - Two To Tango One To Miss Tab

3,137 views 1 this week
no commentswrite comment
1 2 3 4 5
please rate
add to favorites
launch autoscroll
font size
0
reset
how to read this tab
guitar tuner
Tab Pro tools
  • play this tab
  • loop segment
  • change instrument
  • show fretboard
  • metronome
Autoscroll
slow
fast
+/-
esc
set tempo
stop
Contributor
Difficulty
intermediate
Two To Tango, One To Miss - The Apathy eulogy

Tuning: Standard
eBGDAE


   G   Am  A   A# A#m  C#   Dm    
e|--3---5---5---6---6---0----5--|
B|--3---5---5---6---6---1----6--|
G|--4---5---6---7---6---3----7--|
D|--5---7---7---8---8---2----7--|
A|--5---7---7---8---8---3----5--|
E|--3---5---5---6---6---0----5--|



Intro:
e|--3----5-----6-----6----|
B|--3----5-----6-----6----|
G|--4----5-----7-----6----|
D|--5----7-----8-----8----|
A|--5----7-----8-----8----|
E|--3----5-----6-----6----|


Verse 1:
  I hope your lonely without me...
e|--3-------------5-------6------6---|
B|--3-------------5-------6------6---|
G|--4-------------5-------7------6---|
D|--5-------------7-------8------8---|
A|--5-------------7-------8------8---|
E|--3-------------5-------6------6---|x4


Verse 2:
     Delete u from my mobile...
e|--3-----------------5-----6------6----|
B|--3-----------------5-----6------6----|
G|--4-----------------5-----7------6----|
D|--5-----------------7-----8------8----|
A|--5-----------------7-----8------8----|
E|--3-----------------5-----7------6----|x2

   Ladadadada....
e|--3-------5-----6------6----|
B|--3-------5-----6------6----|
G|--4-------5-----7------6----|
D|--5-------7-----8------8----|
A|--5-------7-----8------8----|
E|--3-------5-----7------6----|x4


Chorus:
  I hope your lonely without me...
e|--0-------------5-------6------6---|
B|--1-------------5-------6------6---|
G|--3-------------5-------7------6---|
D|--2-------------7-------8------8---|
A|--3-------------7-------8------8---|
E|--0-------------5-------6------6---|x4

Verse 3:
   I've got an empty weekend...
e|--3-------------5-------6------6---|
B|--3-------------5-------6------6---|
G|--4-------------5-------7------6---|
D|--5-------------7-------8------8---|
A|--5-------------7-------8------8---|
E|--3-------------5-------6------6---|x2

   Ladadadada....
e|--3-------5-----6------6----|
B|--3-------5-----6------6----|
G|--4-------5-----7------6----|
D|--5-------7-----8------8----|
A|--5-------7-----8------8----|
E|--3-------5-----7------6----|x4

Chorus:
  I hope your lonely without me...
e|--0-------------5-------6------6---|
B|--1-------------5-------6------6---|
G|--3-------------5-------7------6---|
D|--2-------------7-------8------8---|
A|--3-------------7-------8------8---|
E|--0-------------5-------6------6---|x8

Outro:
e|--0-------------5---|
B|--1-------------5---|
G|--3-------------5---|
D|--2-------------7---|
A|--3-------------7---|
E|--0-------------5---|x3

e|-------6------6---|
B|-------6------6---|
G|-------7------6---|
D|-------8------8---|
A|-------8------8---|
E|-------6------6---|

I don't know if this is correct, if anyone can correct this will be great.

http://www.myspace.com/theapathyeulogy
comments
We did not receive enough feedback on this tab! Please rate:
print report bad tab
1 2 3 4 5
I want to post or [tab]
guest
You may want to rate the tab now too:
select rating
Please do not post tabs as comments. Select "correction" instead!