Oops, an error
Loading. Please wait.

The Autumn Shade - Shadows Of Our Lives Tab

72 views 1 this week
no commentswrite comment
1 2 3 4 5
3 more votes to show rating
add to favorites
launch autoscroll
font size
0
reset
how to read this tab
guitar tuner
Autoscroll
slow
fast
+/-
esc
set tempo
stop
Help us to improve Ultimate-Guitar.com Take our survey!
×
Author
----------------------------------------------------------------------------
                   shadows of our lives - the autumn shade
----------------------------------------------------------------------------
tabbed by:stutterfly
tuning:drop d
this is a really great underground band but not many people know about them,any 
or corrections just pm me.

intro
e|----------------------------------------------------------------|
b|----------------------------------------------------------------|
g|--------------5-------------2-----------------------------------|
d|--2h3p2h3p2h3---2h3p2h3p2h3-------------------------------------|
a|----------------------------------------------------------------|
d|----------------------------------------------------------------|

verse
e|----------------------------------------------------------------|
b|----------------------------------------------------------------|
g|----------------------------------------------------------------|
d|--14-14-14-9-11-11-11--14-14-14-9-11-7-7-7--7-7-7-6-7-4---------|  x3
a|--12-12-12-7-9---------12-12-12-7-9--5------4-4-4-4-4-2---------|
d|--12-12-12-7-9---------12-12-12-7-9--5------4-4-4-4-4-2---------|

e|----------------------------------------|
b|----------------------------------------|
g|----------------------------------------|
d|--4-4-4-11-11-11-7-7-7/14-14-14-7~------|
a|--2-2-2-9--9--9--5-5-5/12-12-12-5~------|
d|--2-2-2-9--9--9--5-5-5/12-12-12-5~------|

solo (guitar2)
e|-----------------------------5-7-8/10-7--------------------7---|
b|-----------------------5-7-8-----------8-----------------8-----|
g|-------------------5-7-------------------7-------------7-------|
d|-------------5-7-9-------------------------9-----5-5-9---------|
a|-------5-7-9---------------------------------10\5-5------------|
e|-5-7-8---------------------------------------------------------|

e|--7-5-3------------------------------------7-8-10-8-7-5-6-5-3--|
b|--------7-5-------------------------7-8-10---------------------|
g|------------7-5-4---------------7-9----------------------------|
d|------------------7-5-4-5-7/9-7--------------------------------|
a|---------------------------------------------------------------|
e|---------------------------------------------------------------|

e|---------------------------------------------------------------|
b|--6-5-3-4-3-1-6-5-3-8-5-7--------------------------------------|
g|--------------------------7p5----------------------------------|
d|------------------------------5h7-5h7/9-10-9-7-5h7p5~----------|
a|---------------------------------------------------------------|
e|---------------------------------------------------------------|

ok thats it!
Suggest correction
Give kudos to tab author, rate the tab!
1 2 3 4 5
comments
print report bad tab
guest
You may want to rate the tab now too:
select rating
Wanna post a correction for this tab? Suggest correction