Oops, an error
Loading. Please wait.

The Autumns - The Angel Pool Tab

143 views 1 this week
no commentswrite comment
1 2 3 4 5
please rate
add to favorites
launch autoscroll
font size
0
reset
how to read this tab
guitar tuner
Tab Pro tools
  • play this tab
  • loop segment
  • change instrument
  • show fretboard
  • metronome
×
Best way to learn
"The Autumns - The Angel Pool"
Autoscroll
slow
fast
+/-
esc
set tempo
stop
Contributor
http://www.theautumns.com/

-------------------------------------------------------------------------------
                             The Angel Pool by The Autumns
-------------------------------------------------------------------------------

Tabbed by: Mike V
Email: edarotagv335@yahoo.com

seemed like a fair song to try. but there's gotta be some more Autumns listeners in this 
they are truly great. this may be a little funky cuz im tabbing it on a classical 
:P

Guitar 1
pt. 1
e|--------------------------------------------------------------------------|
B|--------------------------------------------------------------------------|
G|----7------6-------------------11-----------------------------------------|
D|------7------7-------9------9-------9-------------------------------------|
A|--5-----5------5---------12------------12\--------------------------------|
E|--------------------------------------------------------------------------|

pt. 2
e|--------------------------------------------------------------------------|
B|--------------------------------------------------------------------------|
G|----------11-------------------11-----------------------------------------|
D|--------9------9-------------9-----9--------------------------------------|
A|-----12----------12\-10--12----------12\----------------------------------|
E|--12----------------------------------------------------------------------|

pt. 3 *theres other guitars going on, can't make it quite out but it works:
e|--------------------------------------------------------------------------|
B|--------------------------------------------------------------------------|
G|--------------9----------------------9------------------------------------|
D|--------9-12-------12--9--------9-12-------12--9--------------------------|
A|--10-12--------(10)-------10-12------(10)---------------------------------|
E|--------------------------------------------------------------------------|
(cont.)                                           last time varies:
e|---------------------------------------------|----------------------------|
B|---------------------------------------------|----------------------------|
G|-------------12--------------------11--------|-------11-------------------|
D|--------9-12----12-9----------9-12----12--9--|--9-12-------12-11----------|
A|--10-12--------------10-10-12----------------|----------10----------------|
E|---------------------------------------------|----------------------------|

Guitar 2 - second half of the song, hard to make out btw, but i tried
e|--------------------------------------------------------------------------|
B|--10---7-------5---5------------------------------------------------------|
G|--11---9-------7---6------------------------------------------------------|
D|--------------------------------------------------------------------------|
A|--------------------------------------------------------------------------|
E|--------------------------------------------------------------------------|

piece of the outtro i i could make out
e|--------------------------------------------------------------------------|
B|-------10--10h12--10--------15-14-12-10-----------------------------------|
G|--9/11--------------------------------------------------------------------|
D|--------------------------------------------------------------------------|
A|--------------------------------------------------------------------------|
E|--------------------------------------------------------------------------|

for the middle part, its a LOT of feedback coming from every guitar, using 
reverb obviously.

| /  slide up
| \  slide down
| h  hammer-on
| p  pull-off
===============================================================================
comments
We did not receive enough feedback on this tab! Please rate:
print report bad tab
1 2 3 4 5
I want to post or [tab]
guest
You may want to rate the tab now too:
select rating
Please do not post tabs as comments. Select "correction" instead!