Oops, an error
Loading. Please wait.

The Axe That Chopped The Cherry Tree - Sandcastles On Glass Shores Tab

131 views 1 this week
no commentswrite comment
1 2 3 4 5
please rate
add to favorites
launch autoscroll
font size
0
reset
how to read this tab
guitar tuner
Tab Pro tools
  • play this tab
  • loop segment
  • change instrument
  • show fretboard
  • metronome
×
Best way to learn
"The Axe That Chopped The Cherry Tree - Sandcastles On Glass Shores"
Autoscroll
slow
fast
+/-
esc
set tempo
stop
Contributor
-----------------------------------------------------------------------------
     Sancastles On Glass Shores - The Axe That Chopped The Cherry Tree
-----------------------------------------------------------------------------

Tabbed by: Billybusa/Hayabusa/Billykidman
Email: Hayabusa__FMW@hotmail.com

Tuning: Standard


e|-----------------------------------------------------|
B|-----------------------------------------------------|
G|-----------------------------------------------------|
D|-----------------------------------------------------|x2
A|--0--0--0--0--0-----------------------0--0--0--0--0--|
E|--0--0--0--0--0-----------------------0--0--0--0--0--|
    .  .  .  .                          .  .  .  .
                
e|--15----19----0----------19---14--------------------| 
B|-------------------15-------------------19----15----| 
G|-----------------------------------14---------------| 
D|----------------------------------------------------| 
A|----------------------------------------------------| 
E|----------------------------------------------------| 
                                                        
e|--------------------|                                 
B|--------19----15----|                                 
G|----14--------------|                                 
D|--------------------|    Repeat whole thing twice     
A|--------------------|                                 
E|--------------------|


e|----------------------------------------------------|
B|----------------------------------------------------|
G|-5--5--5--5--5-----7--7-----5--5--5--5--5-----9--9--|
D|-5--5--5--5--5-----7--7-----5--5--5--5--5-----9--9--|
A|-3--3--3--3--3-----5--5-----3--3--3--3--3-----7--7--|
E|----------------------------------------------------|
                                                          X2
e|----------------------------------------------------|
B|----------------------------------------------------|
G|--5--5--5--5--5-----7--7-----5--5--5--5--9--9--9----|
D|--5--5--5--5--5-----7--7-----5--5--5--5--7--7--7----|
A|--3--3--3--3--3-----5--5-----3--3--3--3--7--7--7----|
E|----------------------------------------------------|
                    
e|--15----19----0----------19---14--------------------| 
B|-------------------15-------------------19----15----| 
G|-----------------------------------14---------------| 
D|----------------------------------------------------| 
A|----------------------------------------------------| 
E|----------------------------------------------------| 
                                                        
e|--------------------|                                 
B|--------19----15----|                                 
G|----14--------------|                                 
D|--------------------|    Repeat whole thing twice     
A|--------------------|                                 
E|--------------------|                                 

e|---------------------------------------------------|
B|---------------------------------------------------|
G|-----------------------7--7--7--7--7--7------------|
D|-----------------------7--7--7--7--7--7------------|
A|-0--0--0--0--0---------5--5--5--5--5--5------------|
E|-0--0--0--0--0-------------------------------------|
   .  .  .  .  

e|---------------------------------------------------|
B|---------------------------------------------------|
G|--------------------------9--9--9--9--9--9---------|
D|--------------------------9--9--9--9--9--9---------|
A|--0--0--0--0--0-----------7--7--7--7--7--7---------|
E|--0--0--0--0--0------------------------------------|
    .  .  .  .

e|---------------------------------------------------|
B|--------------------------10--10--10--10--10--10---|
G|--------------------------10--10--10--10--10--10---|
D|---------------------------8---8---8---8---8---8---|
A|--0--0--0--0--0------------------------------------|
E|--0--0--0--0--0------------------------------------|
    .  .  .  . 

e|---------------------------------------------------|
B|--------------------------13--13--13--13--13-------|
G|--------------------------13--13--13--13--13-------|
D|--------------------------11--11--11--11--11-------|
A|--0--0--0--0--0------------------------------------|
E|--0--0--0--0--0------------------------------------|
    .  .  .  . 

 
e|----------------------------------------------------|
B|----------------------------------------------------|
G|----------------------------------------------------|
D|----------------------------------------------------| x4
A|--0---------0--------0--------0--------0----0-------|
E|--0---------0--------0--------0--------0----0-------|

*Synth* 1:46ish
 
e|----------------------------------------------------|
B|----------------------------------------------------|
G|----------------------------------------------------|
D|----------------------------------------------------| x6
A|--0--------0--------0--0~---------------------------|
E|--0--------0--------0--0~---------------------------|


e|----------------------------------------------------|
B|----------------------------------------------------|
G|------------10--7-------------------10--7-----------|
D|--7--10--7---------10-----7--10--7---------10-------|
A|----------------------------------------------------|
E|----------------------------------------------------|
                                                        X2
e|----------------------------------------------------|
B|----------------------------------------------------|
G|------------12--9---------------------12--9---------|
D|--9--12--9---------12-------9--12--9---------12-----|
A|----------------------------------------------------|
E|----------------------------------------------------|

e|-----------------------------------------------------------|
B|-----------------------------------------------------------|
G|--10--10--10-----10-----10--10----12--12--12----12---12--12|
D|--10--10--10-----10-----10--10----12--12--12----12---12--12|
A|---8---8---8------8------8---8----10--10--10----10---10--10|
E|-----------------------------------------------------------|

^ Just repeat this part a couple of times with different strumming sometimes
 
The rest of the song is just opens with:

e|--------------------|
B|--------------------|
G|--------------------|
D|--------------------|
A|--------------------|
E|-----0--2--3--2-----|

Filled in somewhere
comments
We did not receive enough feedback on this tab! Please rate:
print report bad tab
1 2 3 4 5
I want to post or [tab]
guest
You may want to rate the tab now too:
select rating
Please do not post tabs as comments. Select "correction" instead!