Oops, an error
Loading. Please wait.

The Backhanded Compliments - Forever And A Day Tab

543 views 1 this week
no commentswrite comment
1 2 3 4 5
please rate
add to favorites
launch autoscroll
font size
0
reset
how to read this tab
guitar tuner
Tab Pro tools
  • play this tab
  • loop segment
  • change instrument
  • show fretboard
  • metronome
Autoscroll
slow
fast
+/-
esc
set tempo
stop
-------------------------------------------------------------------------------
                FOREVER AND A DAY - The Backhanded Compliments
-------------------------------------------------------------------------------
Tabbed by: jimmyjazz


Tuning:EADGBe (Standard)

Intro:

e|---------------------------------------------------------------------------|
B|---------------------------------/7-5--------------------------------------|
G|-----------7-6------------------------6-----4---4---7-6--------------------|
D|-4-----4-7-----7-6-7-4-------4-7--------------7---6-----7-4----7----6------|
A|---------------------------7-----------------------------------------------|
E|---------------------------------------------------------------------------|


Verse (not really sure about the lyrics, but you get the idea):

F#m           C#m      Bm A
Minutes felt like sun

F#m                   Bm                A    G#m   F#m
Drifting away into a cup that's lost forever and a day

                C#m     Bm
Let them slip away

A        F#m                Bm   A     G#m
We'll remember them tomorrow, tomorrow anyway



Chorus:

E            F#m
   See your smile

E           F#m
   Eyes shine bright

E               F#m
   Let's lose ourselves

E        C#    C#7
   In tonight



Middle Bit (1:43 - 2:04):

e|---------------------------------|
B|---3------5----------------------|
G|-4---4--6---6------/7-6-4--------|
D|--------------4-7---------7-6----|   x3
A|---------------------------------|
E|---------------------------------|

then

e|---------2-----------------2---------------------7------------|
B|----3-------3----------3------3--------6---9-6-----9-6--------|
G|-4-----4-------4-----4---4-------4--/6---6-----6-------6------|
D|--------------------------------------------------------------|
A|--------------------------------------------------------------|
E|--------------------------------------------------------------|
comments
We did not receive enough feedback on this tab! Please rate:
print report bad tab
1 2 3 4 5
I want to post or [tab]
guest
You may want to rate the tab now too:
select rating
Please do not post tabs as comments. Select "correction" instead!