Oops, an error
Loading. Please wait.

The Bad Signs - Shes Got Her Claws In Me Bass Tab

76 views 1 this week
no commentswrite comment
1 2 3 4 5
3 more votes to show rating
add to favorites
launch autoscroll
font size
0
reset
guitar tuner
Autoscroll
slow
fast
+/-
esc
set tempo
stop
Help us to improve Ultimate-Guitar.com Take our survey!
×
Difficulty
novice
The Bad Signs
She's Got Her Claws In Me
myspace.com/thebadsigns

Intro
G-----------------|-----------------|-----------------|-------------------|
D-----------------|-----------------|-----------------|-5-5-5-5-7-7-------|
A-7-7-7-7-7-7-7-7-|-7-7-7-7-7-7-5-5-|-7-7-7-7-7-7-7-7-|-------------------|
E-----------------|-----------------|-----------------|---------------3-3-|



Verse                                      x3
G-----------------|-----------------|-----------------|-------------------|
D-----------------|-----------------|-----------------|-------------------|
A-----------------|-----------------|-----------------|---------5---------|
E-0-0-0-0-0-0-0-0-|-0-0-0-0-0-0-3-3-|-0-0-0-0-0-0-0-0-|-0-0-0-0-------3---|



Pre Chorus
G--------------------|--------------------|-----------------|-------------------|
D--------------------|--------------------|-----------------|-------------------|
A--------------------|--------------------|-----------------|-5-5-5-5------5----|
E-0----0----0----0---|-3----3----3----3---|-5-5-5-5-5-5-5-5-|------------3------|




Chorus
G-----------------|-----------------|-----------------|-------------------|
D-----------------|-----------------|-----------------|-------------------|
A-----------------|-----------------|-----------------|------------5------|
E-0-0-0-0-0-0-0-0-|-0-0-0-0-0-0-3-3-|-0-0-0-0-0-0-0-0-|-0-0-0-0-------3---|

G--------------------|--------------------|-----------------|-------------------|
D--------------------|--------------------|-----------------|-------------------|
A--------------------|--------------------|-----------------|-5-5-5-5------5----|
E-0----0----0----0---|-3----3----3----3---|-5-5-5-5-5-5-5-5-|------------3------|
Suggest correction
Give kudos to tab author, rate the tab!
1 2 3 4 5
comments
print report bad tab
guest
You may want to rate the tab now too:
select rating
Wanna post a correction for this tab? Suggest correction