Oops, an error
Loading. Please wait.

The Bats - Block Of Wood Bass

93 views 1 this week
no commentswrite comment
1 2 3 4 5
3 more votes to show rating
add to favorites
launch autoscroll
font size
0
reset
guitar tuner
×
Best way to learn
"The Bats - Block Of Wood"
Autoscroll
slow
fast
+/-
esc
set tempo
stop
INTRO, OUTRO, and VERSES
-3-3-3-3--------------3-3-3-3----------|
--------0-0-0-0------------------------|
---------------0-0-0-0-----------------|
---------------------------------------|

-3-3-3-3-------------------------------|
--------0-0-0-0------------------------|
---------------0-0-0-0-----------------|
---------------------------------------|

CHORUS
--------0-0-0-0-0-0-5-5-5-5-5----------|
-----------------------------5-5-5-5-5-|
---------------------------------------|
---------------------------------------|

--------0-0-0-0-0-0-5-5-5-5------------|
---------------------------5-5-5-5-5-5-|
---------------------------------------|
---------------------------------------|

-3-3-3-3-----5-5-5-5--------3-3-3-3----|
--------------------5-5-5-5------------|
Suggest correction
Give kudos to tab author, rate the tab!
1 2 3 4 5
comments
print report bad tab
guest
You may want to rate the tab now too:
select rating
Wanna post a correction for this tab? Suggest correction