Oops, an error
Loading. Please wait.

The Bottom Line - Record Player Tab

268 views 1 this week
no commentswrite comment
1 2 3 4 5
please rate
add to favorites
launch autoscroll
font size
0
reset
how to read this tab
guitar tuner
Autoscroll
slow
fast
+/-
esc
set tempo
stop
Help us to improve Ultimate-Guitar.com Take our survey!
×
Author
Difficulty
Tuning
intermediate
D A D G B E
-------------------------------------------------------------------------------
                             Record Player - The Bottom Line
-------------------------------------------------------------------------------
Tabbed by: Callum Amies
E-mail:FreestyleEvents@live.com

Tuning:Drop D 

Main Riff 

E|---------------------------------------------------------------------------|
B|---------------------------------------------------------------------------|
G|---------------------------------------------------------------------------|
D|----8--10--12------12--\--10--\--8--10--\--8-------------------------------|
A|---------------------------------------------------------------------------|
D|----6--8---10------10--\--8---\--6--8---\--6-------------------------------|
Main Riff (Continued) 
e|---------------------------------------------------------------------------|
B|---------------------------------------------------------------------------|
G|---------------------------------------------------------------------------|
D|----8--10--12------12--\--10--\--8----13--\--12--\--8----------------------|
A|---------------------------------------------------------------------------|
D|----6--8---10------10--\--8---\--6----11--\--10--\--6----------------------|x2 


Pre-Chorus Riff (0:55) 
e|---11--11--11--11-10---10--10--10-11---11-13---13-15---15-13---------------|
B|-----11--11--11--11--11--11--11--11--11--11--11--11--11--11----------------|
G|---------------------------------------------------------------------------|
D|---------------------------------------------------------------------------|
A|---------------------------------------------------------------------------|
D|---------------------------------------------------------------------------|

Chorus Riff
e|---------------------------------------------------------------------------|
B|---------------8---------------8-------------------8------8-----8----------|
G|----8-8-10-8-8---10-8-8-8-10-8---8----8-8-8-10-8-8---10-8---8--8-8-10-8-7--|
D|-----8-8--8-8-8-8--8-8-8-8--8-8----8-8-8-8-8--8-8-8-8--8-8----8------------|
A|---------------------------------------------------------------------------|
D|---------------------------------------------------------------------------|

Middle 8 Chords (2:26)
e|---------------------------------------------------------------------------|
B|--8-----8-----8----------8-----8----8--------------------------------------|
G|--8-----8-----8----------8-----8----8--------------------------------------|
D|--8-----8-----8----------8-----8----8--------------------------------------|
A|--6-----x-----x----------x-----x----x--------------------------------------|
D|--------8-----6----X3----10----8----6--------------------------------------|



************************************

| /   slide up
| \   slide down
| h   hammer-on
| p   pull-off
| ~   vibrato
| +   harmonic
| x   Mute note
| b   Bend
| pb  Pre-bend
| br  Bend release
| pbr Pre-bend release
| brb Bend release bend

************************************
Suggest correction new What's this?
You can suggest a correction to this tab. Community and Mods will review your correction and vote to approve or reject it.
comments
We did not receive enough feedback on this tab! Please rate:
print report bad tab
1 2 3 4 5
guest
You may want to rate the tab now too:
select rating
Please do not post tabs as comments. Select "correction" instead!