Oops, an error
Loading. Please wait.

The Cold Truth - Cold Cold Winter Bass Tab

144 views 1 this week
no commentswrite comment
1 2 3 4 5
3 more votes to show rating
add to favorites
launch autoscroll
font size
0
reset
guitar tuner
Autoscroll
slow
fast
+/-
esc
set tempo
stop
Help us to improve Ultimate-Guitar.com Take our survey!
×
Author
Difficulty
Tuning
novice
D A D G B E
 Verse 1:
 G|---------------------------------| x4
 D|-2~~~~~~~~~~~~~~~4~~~~~~~--------|
 A|-------------------------4~~~~~~-|
 D|---------------------------------|

 G|---------------------------------| x4
 D|-2-2-2-2-2-2-2-2-4-4-4-4---------|
 A|-------------------------4-4-4-4-|
 D|---------------------------------|

 Chorus:
 G|----------------------------------| x4
 D|----------------------------------|
 A|-2222222222222222--------00000000-|
 D|-----------------44444444---------|

 Verse 2:
 G|----------------------------------| x3
 D|-242424242424242446464646---------|
 A|-------------------------46464646-|
 D|----------------------------------|

 G|-------------------------74-------|
 D|-242424242424242446464646--64-----|
 A|-----------------------------74---|
 D|-------------------------------64-|

 G|----------------------------------| x4
 D|----------------------------------|
 A|-------------------------44444444-|
 D|-222222222222222244444444---------|

 Chorus:
 G|----------------------------------| x8
 D|----------------------------------|
 A|-2222222222222222--------00000000-|
 D|-----------------44444444---------|

 Verse 3:
 G|---------------------------------| x4
 D|-2-2-2-2-2-2-2-2-4-4-4-4---------|
 A|-------------------------4-4-4-4-|
 D|---------------------------------|

 G|---------------------------------| x4
 D|-2~~~~~~~2~~~~~~~4~~~~~~~--------|
 A|-------------------------4~~~~~~-|
 D|---------------------------------|

This Band's Internet Sites:
www.myspace.com/wedontlookgoodinspeedos
www.purevolume.com/wedontlookgoodinspeedos
www.triplejunearthed.com/thecoldtruth
Suggest correction
Give kudos to tab author, rate the tab!
1 2 3 4 5
comments
print report bad tab
guest
You may want to rate the tab now too:
select rating
Wanna post a correction for this tab? Suggest correction