Oops, an error
Loading. Please wait.

The Color Fred - Lullaby Tab

version 1
version 1

Whole song

383 views 1 this week
2 commentsread comments
1 2 3 4 5
3 more votes to show rating
add to favorites
launch autoscroll
font size
0
reset
how to read this tab
guitar tuner
×
Best way to learn
"The Color Fred - Lullaby"
Autoscroll
slow
fast
+/-
esc
set tempo
stop
Author
----------------------------------------------------------------------------
                             SONG NAME - Band Name
----------------------------------------------------------------------------
Tabbed by: MellowMode
Email:  two.8@hotmail.com


hey everyone, i dont know if u have heard this song, but its good. you can go to youtube 
look up domestic "disturbance" it will have fred mascherino and other artists. this is 
first tab so yeah, tell me what you think

Tuning:

e|------------------------0-2h4-----------------------------------|
B|--------5-4-2-0---------------5---------5-4-2-0-----------------|
G|------4---------2-1/2/4---------4/6-4-4---------4---------------|
D|----2-----------------------------------------------------------|
A|----------------------------------------------------------------|
E|--4-------0-----0-4-----------------4-----0-----4---------------|


e|------------------------0-2h4-----------------------------------|
B|----5-4-2-0-------------------5-4-5-4-5-4-----------------------|
G|--4---------4/6-4-1/2/4-----------------------------------------|
D|----------------------------------------------------------------|
A|----------------------------------------------------------------|
E|------0---------4-4---------------------------------------------|

its a great song, ill tab the rest later peace

| /  slide up
| \  slide down
| h  hammer-on
| p  pull-off
| ~  vibrato
| +  harmonic
| x  Mute note
============================================================================
Suggest correction
Give kudos to tab author, rate the tab!
1 2 3 4 5
comments
print report bad tab
2 comments total.
0 reply
MellowMode 30 Apr 18, 2007 10:12 AM

hey i messed up with the tab and forgot a part, sorry. here it is


e|------------------------------------0-2h4-----0---0---0---------|
B|----5-4-2-0---------5-4-2-0---------------5-4---4---4-----------|
G|--4---------4/6-4-4---------2-1/2/4-----------------------------|
D|----------------------------------------------------------------|
A|----------------------------------------------------------------|
E|------0---------4-----0--------4--------------------------------|

0 reply
eyasw0rld 31 Aug 24, 2007 11:07 AM

hey i just tabbed the whole song 2 days ago and they said it should be up today
but your version is way good!
mine is different but yeah i tabbed the whole song so yeah :) i'll let you know if i find it!

guest
You may want to rate the tab now too:
select rating
Wanna post a correction for this tab? Suggest correction