Oops, an error
Loading. Please wait.

The Color Fred - Lullaby Tab

version 2
version 2

Whole song

1,105 views 1 this week
no commentswrite comment
1 2 3 4 5
please rate
add to favorites
launch autoscroll
font size
0
reset
how to read this tab
guitar tuner
Tab Pro tools
  • play this tab
  • loop segment
  • change instrument
  • show fretboard
  • metronome
×
Best way to learn
"The Color Fred - Lullaby"
Autoscroll
slow
fast
+/-
esc
set tempo
stop
Contributor
Difficulty
Tuning
intermediate
E A D G B E
--------------------------------------------|
                 LULLABY- Breaking Pangaea -|
Tabbed by: Buela MacLeroy
Email:wouldn't you like to know?

Tuning: half a step down, trust me :)

First of all, this is my first tab  woohoo  and second, i'm no professional so don't be
harsh, and i play alot different then fred, and everyone else, cause my chords are
out like woah! actually, i'm not even sure if they're considered chords, but i'll try my 
to make it sound like him  and he's my bigtime hero! he's cooler than you can ever
cause he's my hero! and breaking pangaea is amazing!
here's the video for it
http://www.youtube.com/watch?v=fHbkTcLopWA&mode=related&search=

| /  slide up
| \  slide down
| h  hammer-on
| p  pull-off
| ~  vibrato
| +  harmonic
| x  Mute note


Intro

e|--------0-|-----------|----------|----------|------0---|-----------|
B|------0---|-4p2-------|--------5-|-7h9-5----|-0--------|-4p2-------|
G|----------|-----4p2---|------4---|-------4/6|----------|-----4p2---|
D|----2-----|-----------|-6h7------|----------|----2-----|-----------|
A|----------|-0---------|----------|-0--------|----------|-0---------|
E|-4--------|-----------|-4----0---|----------|-4--------|-----------|

e|----------|-----------|------0---|----------|------0---|-----------|
B|--------5-|-7h9-5-----|-0--------|-4p2------|-0--------|-4p2-------|
G|-----4----|-------4/6-|----------|-----4p2--|----------|-----4-4/6-|
D|-6h7------|-----------|----2-----|----------|----2-----|-----------|
A|-4--------|-----------|----------|-0--------|----------|-0---------|
E|----(4)---|-7---------|-4--------|----------|-4--------|-----------|

e|-------0--|-----------|----------|-------0-0-0---0--0---|
B|-0--------|-4p2-------|--------5-|-7h9----4-4-4--4---4--|
G|----------|-----4p2---|-----4----|---------------2------|
D|----2-----|-----------|-6h7------|---------------2------|
A|----------|-0---------|----------|-0-------------0------|
E|-4--------|-----------|-4---0----|----------------------|
                                              (pickup pick here)
Verse

e|----------|-----------|----------|---------|
B|----------|-----------|----------|---------|
G|-----4----|-----4-----|-----4----|-----4---|
D|---2---2--|---2---2---|---2---2--|---4---4-|
A|----------|-0---------|-4--------|-2-------|
E|-4--------|-----------|----------|---------|

e|----------|-----------|----------|---------|
B|----------|-----------|----------|-----4---|
G|-----4----|-----4-----|-----4----|-----4---|
D|---2---2--|---2---2---|---2---2--|---4---4-|
A|----------|-0---------|-4--------|-2-------|
E|-4--------|-----------|----------|---------|

e|----------|-----------|----------|---------|
B|----------|-----------|----------|---------|
G|-----4----|-----4-----|-----4----|-----4---|
D|---2---2--|---2---2---|---2---2--|---4---4-|
A|----------|-0---------|-4--------|-2-------|
E|-4--------|-----------|----------|---------|

e|----------|-----------|----------|---------|
B|----------|-----------|----------|-----4---|
G|-----4----|-----4-----|-----4----|-----4---|
D|---2---2--|---2---2---|---2---2--|---4---4-|
A|----------|-0---------|-4--------|-2-------|
E|-4--------|-----------|----------|---------|

Chorus
   1------2-------3-------4                             1--2----|
e|-0--0-0---0-0-0-0--0-0--0-0-|-4-4-4-4-4-4--2--2-2-2-|---------|
B|-2--2-2h4-2-2-4/9--9-9--9-9-|-5-5-5-5-5-5--4--4-4-4-|---------|
G|-2--2-2h4-2-2-4/9--9-9--9-9-|-6-6-6-6-6-6--4--4-4-4-|-9-9-8---|
D|-2--2-2---2-2-2/7--7-7--7-7-|-6-6-6-6-6-6--4--4-4-4-|-9-9-8---|
A|-0--0-0---0-0-0-0--0-0--0-0-|-4-4-4-4-4-4--4--2-2-2-|-7-7-6---|
E|-0--0-0---0-0-0-0--0-0--0-0-|-4-4-4-4-4-4--2--2-2-2-|-0-0-0---|

e|-0--0-0---0-0-0-0--0-0--0-0-|-4-4-4-4-4-4--7-7-7-7-7-7-7-|-0---------------|
B|-2--2-2h4-2-2-4/9--9-9--9-9-|-5-5-5-5-5-5--7-7-7-7-7-7-7-|-9---------------|
G|-2--2-2h4-2-2-4/9--9-9--9-9-|-6-6-6-6-6-6--8-8-8-8-8-8-8-|-9-(about 12-----|x)
D|-2--2-2---2-2-2/7--7-7--7-7-|-6-6-6-6-6-6--9-9-9-9-9-9-9-|-7---------------|
A|-0--0-0---0-0-0-0--0-0--0-0-|-4-4-4-4-4-4--9-9-9-9-9-9-9-|-0---------------|
E|-0--0-0---0-0-0-0--0-0--0-0-|-4-4-4-4-4-4--7-7-7-7-7-7-7-|-0---------------|

Verse 2

e|--------0-0-0-|---------0-0-0-|--------0-0-0-|--------0-0-0-|
B|--------0-0-0-|---------0-0-0-|--------0-0-0-|--------0-0-0-|
G|--------4-4-4-|---------4-4-4-|--------4-4-4-|--------4-4-4-|
D|--------2-2-2-|---------2-2-2-|--------2-2-2-|--------4-4-4-|
A|--------x-x-x-|-0-0--0--0-0-0-|-4-4--4-4-4-4-|-2-2--2-2-2-2-|
E|-4-4--4-4-4-4-|-x-x--x--x-x-x-|--------------|--------------|
   x x  x         x x  x          x x  x         x x  x

e|--------0-0-0-|---------0-0-0-|--------0-0-0-|--------0-0-0-|
B|--------0-0-0-|---------0-0-0-|--------0-0-0-|--------0-0-0-|
G|--------4-4-4-|---------4-4-4-|--------4-4-4-|--------4-4-4-|
D|--------2-2-2-|---------2-2-2-|--------2-2-2-|--------4-4-4-|
A|--------x-x-x-|-0-0--0--0-0-0-|-4-4--4-4-4-4-|-2-2--2-2-2-2-|
E|-4-4--4-4-4-4-|-x-x--x--x-x-x-|--------------|--------------|
   x x  x         x x  x          x x  x         x x  x

e|--------0-0-0-|---------0-0-0-|--------0-0-0-|--------0-0-0-|
B|--------0-0-0-|---------0-0-0-|--------0-0-0-|--------0-0-0-|
G|--------4-4-4-|---------4-4-4-|--------4-4-4-|--------4-4-4-|
D|--------2-2-2-|---------2-2-2-|--------2-2-2-|--------4-4-4-|
A|--------x-x-x-|-0-0--0--0-0-0-|-4-4--4-4-4-4-|-2-2--2-2-2-2-|
E|-4-4--4-4-4-4-|-x-x--x--x-x-x-|--------------|--------------|
   x x  x         x x  x          x x  x         x x  x

e|--------0-0-0-|---------0-0-0-|--------0-0-0-|-0-0-0-0-0-0-0-|
B|--------0-0-0-|---------0-0-0-|--------0-0-0-|-0-0-0-0-0-0-0-|
G|--------4-4-4-|---------4-4-4-|--------4-4-4-|-4-4-4-4-4-4-4-|
D|--------2-2-2-|---------2-2-2-|--------2-2-2-|-4-4-4-4-4-4-4-|
A|--------x-x-x-|-0-0--0--0-0-0-|-4-4--4-4-4-4-|-2-2-2-2-2-2-2-|
E|-4-4--4-4-4-4-|-x-x--x--x-x-x-|--------------|---------------|
   x x  x         x x  x          x x  x         x x x (let it build up)

Chorus

e|-0--0-0---0-0-0-0--0-0--0-0-|-4-4-4-4-4-4--7--7-7-7-7-7-7-|
B|-2--2-2h4-2-2-4/9--9-9--9-9-|-5-5-5-5-5-5--7--7-7-7-7-7-7-|
G|-2--2-2h4-2-2-4/9--9-9--9-9-|-6-6-6-6-6-6--8--8-8-8-8-8-8-|
D|-2--2-2---2-2-2/7--7-7--7-7-|-6-6-6-6-6-6--9--9-9-9-9-9-9-|
A|-0--0-0---0-0-0-0--0-0--0-0-|-4-4-4-4-4-4--9--9-9-9-9-9-9-|
E|-0--0-0---0-0-0-0--0-0--0-0-|-4-4-4-4-4-4--7--7-7-7-7-7-7-|

e|-0--0-0---0-0-0-0--0-0--0-0-|-4-4-4-4-4-4--7--7-7-7-7-7-7-|
B|-2--2-2h4-2-2-4/9--9-9--9-9-|-5-5-5-5-5-5--7--7-7-7-7-7-7-|
G|-2--2-2h4-2-2-4/9--9-9--9-9-|-6-6-6-6-6-6--8--8-8-8-8-8-8-|
D|-2--2-2---2-2-2/7--7-7--7-7-|-6-6-6-6-6-6--9--9-9-9-9-9-9-|
A|-0--0-0---0-0-0-0--0-0--0-0-|-4-4-4-4-4-4--9--9-9-9-9-9-9-|
E|-0--0-0---0-0-0-0--0-0--0-0-|-4-4-4-4-4-4--7--7-7-7-7-7-7-|

e|-0--0-0---0-0-0-0--0-0--0-0-|-4-4-4-4-4-4--2--2-2-2-2-2-2-|
B|-2--2-2h4-2-2-4/9--9-9--9-9-|-5-5-5-5-5-5--4--4-4-4-4-4-4-|
G|-2--2-2h4-2-2-4/9--9-9--9-9-|-6-6-6-6-6-6--4--4-4-4-4-4-4-|
D|-2--2-2---2-2-2/7--7-7--7-7-|-6-6-6-6-6-6--4--4-4-4-4-4-4-|
A|-0--0-0---0-0-0-0--0-0--0-0-|-4-4-4-4-4-4--2--2-2-2-2-2-2-|
E|-0--0-0---0-0-0-0--0-0--0-0-|-4-4-4-4-4-4--2--2-2-2-2-2-2-|

e|-0--0-0---0-0-0-0--0-0--0-0-|-4-4-4-4-4-4--7--7-7-7-7-7-7-|
B|-2--2-2h4-2-2-4/9--9-9--9-9-|-5-5-5-5-5-5--7--7-7-7-7-7-7-|
G|-2--2-2h4-2-2-4/9--9-9--9-9-|-6-6-6-6-6-6--8--8-8-8-8-8-8-|
D|-2--2-2---2-2-2/7--7-7--7-7-|-6-6-6-6-6-6--9--9-9-9-9-9-9-|
A|-0--0-0---0-0-0-0--0-0--0-0-|-4-4-4-4-4-4--9--9-9-9-9-9-9-|
E|-0--0-0---0-0-0-0--0-0--0-0-|-4-4-4-4-4-4--7--7-7-7-7-7-7-|

Bridge

e|-0-----0-----0-----0-0-0-0-0-0-0-0-0-0-0-0-|
B|-4~------4-----4---4-4-4-4-4-4-4-4-4-4-4-4-|
G|-4~--------4-----4-4-4-4-4-4-4-4-4-4-4-4-4-|
D|-2~----------------2-2-2-2-2-2-2-2-2-2-2-2-|
A|-0-----------------0-0-0-0-0-0-0-0-0-0-0-0-|
E|-0-----------------0-0-0-0-0-0-0-0-0-0-0-0-|

e|--------0-0-0-|--------0-0-0-|--------0-0-0-|--------0-0-0-|
B|--------0-0-0-|--------0-0-0-|--------0-0-0-|--------0-0-0-|
G|--------4-4-4-|--------4-4-4-|--------4-4-4-|--------4-4-4-|
D|--------2-2-2-|--------2-2-2-|--------2-2-2-|--------4-4-4-|
A|--------x-x-x-|-0-0--0-0-0-0-|-4-4--4-4-4-4-|-2-2--2-2-2-2-|
E|-4-4--4-4-4-4-|--------------|--------------|--------------|

e|--------0-0-0-|--------0-0-0-|--------0-0-0-|-0-0-0-0-0-0-0-0-|
B|--------0-0-0-|--------0-0-0-|--------0-0-0-|-0-0-0-0-0-0-0-0-|
G|--------4-4-4-|--------4-4-4-|--------4-4-4-|-4-4-4-4-4-4-4-4-|
D|--------2-2-2-|--------2-2-2-|--------2-2-2-|-4-4-4-4-4-4-4-4-|
A|--------x-x-x-|-0-0--0-0-0-0-|-4-4--4-4-4-4-|-2-2-2-2-2-2-2-2-|
E|-4-4--4-4-4-4-|--------------|--------------|-----------------|
                                               (let it build up)

e|-------0--0-0-|--------0-0-0-|--------0-0-0-|--------0-0-0-|
B|-------0--0-0-|--------0-0-0-|--------0-0-0-|--------0-0-0-|
G|-------4--4-4-|--------4-4-4-|--------4-4-4-|--------4-4-4-|
D|-------2--2-2-|--------2-2-2-|--------2-2-2-|--------4-4-4-|
A|-------x--x-x-|-0-0--0-0-0-0-|-4-4--4-4-4-4-|-2-2--2-2-2-2-|
E|-4-4---4--4-4-|--------------|--------------|--------------|


e|--------0-0-0-|--------0-0-0-|--------0-0-0-|-0-0-0-0-0-0-0-0-|
B|--------0-0-0-|--------0-0-0-|--------0-0-0-|-0-0-0-0-0-0-0-0-|
G|--------4-4-4-|--------4-4-4-|--------4-4-4-|-4-4-4-4-4-4-4-4-|
D|--------2-2-2-|--------2-2-2-|--------2-2-2-|-4-4-4-4-4-4-4-4-|
A|--------x-x-x-|-0-0--0-0-0-0-|-4-4--4-4-4-4-|-2-2-2-2-2-2-2-2-|
E|-4-4--4-4-4-4-|--------------|--------------|-----------------|
                                               (let it build up)
Chorus

e|-0--0-0---0-0-0-0--0-0--0-0-|-4-4-4-4-4-4--2--2-2-2-2-2-2-|
B|-2--2-2h4-2-2-4/9--9-9--9-9-|-5-5-5-5-5-5--4--4-4-4-4-4-4-|
G|-2--2-2h4-2-2-4/9--9-9--9-9-|-6-6-6-6-6-6--4--4-4-4-4-4-4-|
D|-2--2-2---2-2-2/7--7-7--7-7-|-6-6-6-6-6-6--4--4-4-4-4-4-4-|
A|-0--0-0---0-0-0-0--0-0--0-0-|-4-4-4-4-4-4--2--2-2-2-2-2-2-|
E|-0--0-0---0-0-0-0--0-0--0-0-|-4-4-4-4-4-4--2--2-2-2-2-2-2-|

e|-0--0-0---0-0-0-0--0-0--0-0-|-4-4-4-4-4-4--7--7-7-7-7-7-7-|
B|-2--2-2h4-2-2-4/9--9-9--9-9-|-5-5-5-5-5-5--7--7-7-7-7-7-7-|
G|-2--2-2h4-2-2-4/9--9-9--9-9-|-6-6-6-6-6-6--8--8-8-8-8-8-8-|
D|-2--2-2---2-2-2/7--7-7--7-7-|-6-6-6-6-6-6--9--9-9-9-9-9-9-|
A|-0--0-0---0-0-0-0--0-0--0-0-|-4-4-4-4-4-4--9--9-9-9-9-9-9-|
E|-0--0-0---0-0-0-0--0-0--0-0-|-4-4-4-4-4-4--7--7-7-7-7-7-7-|

e|-0--0-0---0-0-0-0--0-0--0-0-|-4-4-4-4-4-4--2--2-2-2-2-2-2-|
B|-2--2-2h4-2-2-4/9--9-9--9-9-|-5-5-5-5-5-5--4--4-4-4-4-4-4-|
G|-2--2-2h4-2-2-4/9--9-9--9-9-|-6-6-6-6-6-6--4--4-4-4-4-4-4-|
D|-2--2-2---2-2-2/7--7-7--7-7-|-6-6-6-6-6-6--4--4-4-4-4-4-4-|
A|-0--0-0---0-0-0-0--0-0--0-0-|-4-4-4-4-4-4--2--2-2-2-2-2-2-|
E|-0--0-0---0-0-0-0--0-0--0-0-|-4-4-4-4-4-4--2--2-2-2-2-2-2-|

e|-0--0-0---0-0-0-0--0-0--0-0-|-4-4-4-4-4-4--7--7-7-7-7-7-7-|
B|-2--2-2h4-2-2-4/9--9-9--9-9-|-5-5-5-5-5-5--7--7-7-7-7-7-7-|
G|-2--2-2h4-2-2-4/9--9-9--9-9-|-6-6-6-6-6-6--8--8-8-8-8-8-8-|
D|-2--2-2---2-2-2/7--7-7--7-7-|-6-6-6-6-6-6--9--9-9-9-9-9-9-|
A|-0--0-0---0-0-0-0--0-0--0-0-|-4-4-4-4-4-4--9--9-9-9-9-9-9-|
E|-0--0-0---0-0-0-0--0-0--0-0-|-4-4-4-4-4-4--7--7-7-7-7-7-7-|

Outro

e|--------0-|-----------|----------|----------|------0---|-----------|
B|------0---|-4p2-------|--------5-|-7h9-5----|-0--------|-4p2-------|
G|----------|-----4p2---|------4---|-------4/6|----------|-----4p2---|
D|----2-----|-----------|-6h7------|----------|----2-----|-----------|
A|----------|-0---------|----------|-0--------|----------|-0---------|
E|-4--------|-----------|-4----0---|----------|-4--------|-----------|

e|----------|--------------0-------0-|
B|--------5-|-7h9-5--------0-------0-|
G|-----4----|-------4/6\1--1---1-----|
D|-6h7------|--------------2---2-----|
A|-4--------|--------------2---2-----|
E|----(4)---|-7------------0---4-----|

===============================================================================
comments
We did not receive enough feedback on this tab! Please rate:
print report bad tab
1 2 3 4 5
I want to post or [tab]
guest
You may want to rate the tab now too:
select rating
Please do not post tabs as comments. Select "correction" instead!